Home » M » Muppets »

Muppets - Rainbow Connection Acoustic Tabs

Artists:  A B C D E F G H I J K L M N O P Q R S T U V W X Y Z # 

Rainbow Connection Acoustic Tabs

(ver. 1) Click to play this song!
Muppets
[Intro]

    G          C/G       G          C/G

e|--------3--3--------0--------3--3--------0---|
B|--------0--0--------1--------0--0--------1---|
G|--------0--0--------0--------0--0--------0---|
D|-----0-----------2--------0-----------2------|
A|---------------------------------------------|
E|---3-----------3--------3-----------3--------|



[Verse]

     G            Em7         Am7             D

e|--------3--3----------0--0--------0--0------------2--2---|
B|--------0--0----------0--0--------1--1------------3--3---|
G|--------0--0----------0--0--------0--0------------2--2---|
D|-----0-------------0------------------------0------------|
A|-----------------------------0---------------------------|
E|---3-------------0---------------------------------------|

Why     are there  so many     songs    about rainbows
 
 
     G            Em7          C

e|--------3--3----------0--0--------0--0------------0--0------|
B|--------0--0----------0--0--------1--1------------1--1------|
G|--------0--0----------0--0--------0--0------------0--0------|
D|-------------------------------2--------2------2--------0---|
A|-----------------------------3---------------3--------------|
E|---3-------------0------------------------------------------|

and what's on   the    other   side


     G            Em7         Am7             D

e|--------3--3----------0--0--------0--0------------2--2---|
B|--------0--0----------0--0--------1--1------------3--3---|
G|--------0--0----------0--0--------0--0------------2--2---|
D|-----0-------------0------------------------0------------|
A|-----------------------------0---------------------------|
E|---3-------------0---------------------------------------|

     Rainbows are  visions,    but only      illusions


     G            Em7          C

e|--------3--3----------0--0--------0--0------------0--0------|
B|--------0--0----------0--0--------1--1------------1--1------|
G|--------0--0----------0--0--------0--0------------0--0------|
D|-------------------------------2--------2------2--------0---|
A|-----------------------------3---------------3--------------|
E|---3-------------0------------------------------------------|

 and rainbows have nothing to hide


[Pre-chorus]

   Cmaj7

e|---------0--0-------0--0----------0--0-------0--0---|
B|---------0--0-------0--0----------0--0-------0--0---|
G|---------0--0-------0--0----------0--0-------0--0---|
D|-----2------------------------2---------------------|
A|---3------------3-----------3------------3----------|
E|----------------------------------------------------|

 so we've been told and some chose to believe it
 

    Bm7

e|--------2--2--------2--2-|------2--2--------2--2---|
B|--------0--0--------0--0-|------0--0--------0--0---|
G|--------2--2--------2--2-|------2--2--------2--2---|
D|-----0-------0----0------|---0-------0----0--------|
A|---2------------2--------|-2------------2----------|
E|-------------------------|-------------------------|

I know they're wrong wait and see


[Chorus]

    Am7        D        Bm7      E7

e|----------------2--2-----2--2----------0---|
B|------1--1------3--3-----0--0--------0-----|
G|------0--0------2--2-----2--2------1-------|
D|------2--2---0-------------------0---------|
A|---0-------------------2-------------------|
E|-------------------------------0-----------|

Someday we'll find it, a rainbow connection


    Am7       D7              G          C/G       G          C/G

e|------0--0-------2--2------------3--3--------0-|------3--3--------0---|
B|------1--1-------1--1------------0--0--------1-|------0--0--------1---|
G|------0--0-------2--2------------0--0--------0-|------0--0--------0---|
D|-------------0----------------0-----------2----|---0-----------2------|
A|---0-------------------------------------------|----------------------|
E|----------------------------3-----------3------|-3-----------3--------|

The lovers,  the dreamers, and me


[Verse]

     G            Em7         Am7             D

e|--------3--3----------0--0--------0--0------------2--2---|
B|--------0--0----------0--0--------1--1------------3--3---|
G|--------0--0----------0--0--------0--0------------2--2---|
D|-----0-------------0------------------------0------------|
A|-----------------------------0---------------------------|
E|---3-------------0---------------------------------------|

Who said that      every wish, would be heard and answered

 
     G            Em7          C

e|--------3--3----------0--0--------0--0------------0--0------|
B|--------0--0----------0--0--------1--1------------1--1------|
G|--------0--0----------0--0--------0--0------------0--0------|
D|-------------------------------2--------2------2--------0---|
A|-----------------------------3---------------3--------------|
E|---3-------------0------------------------------------------|

when wished on a morning star


     G            Em7         Am7             D

e|--------3--3----------0--0--------0--0------------2--2---|
B|--------0--0----------0--0--------1--1------------3--3---|
G|--------0--0----------0--0--------0--0------------2--2---|
D|-----0-------------0------------------------0------------|
A|-----------------------------0---------------------------|
E|---3-------------0---------------------------------------|

Somebody      thought of that, and someone    believed it


     G            Em7          C

e|--------3--3----------0--0--------0--0------------0--0------|
B|--------0--0----------0--0--------1--1------------1--1------|
G|--------0--0----------0--0--------0--0------------0--0------|
D|-------------------------------2--------2------2--------0---|
A|-----------------------------3---------------3--------------|
E|---3-------------0------------------------------------------|

 and look what it's done so far


[Pre-chorus]

   Cmaj7

e|---------0--0-------0--0----------0--0-------0--0---|
B|---------0--0-------0--0----------0--0-------0--0---|
G|---------0--0-------0--0----------0--0-------0--0---|
D|-----2------------------------2---------------------|
A|---3------------3-----------3------------3----------|
E|----------------------------------------------------|

    What's so amazing, that   keeps us stargazing
 

    Bm7

e|--------2--2--------2--2-|------2--2--------2--2---|
B|--------0--0--------0--0-|------0--0--------0--0---|
G|--------2--2--------2--2-|------2--2--------2--2---|
D|-----0-------0----0------|---0-------0----0--------|
A|---2------------2--------|-2------------2----------|
E|-------------------------|-------------------------|

And what do we    think we might see


[Chorus]


    Am7        D        Bm7      E7

e|----------------2--2-----2--2----------0---|
B|------1--1------3--3-----0--0--------0-----|
G|------0--0------2--2-----2--2------1-------|
D|------2--2---0-------------------0---------|
A|---0-------------------2-------------------|
E|-------------------------------0-----------|

Some day we'll find it,  a rainbow connection


    Am7       D7              G          

e|------0--0-------2--2------------3--3---|
B|------1--1-------1--1------------0--0---|
G|------0--0-------2--2------------0--0---|
D|-------------0----------------0---------|
A|---0------------------------------------|
E|----------------------------3-----------|

The lovers,  the dreamers, and me


[Bridge]


    Am7        D7             G  

e|-------0--0-------2--2-----------3--3---|
B|-------1--1-------1--1-----------0--0---|
G|-------0--0-------2--2-----------0--0---|
D|--------------0---------------0---------|
A|---0------------------------------------|
E|----------------------------3-----------|
 
     All of us  under it's    spell


  Am7        D7             G            Bm7

e|-------0--0-------2--2-----------3--3----------2--2---|
B|-------1--1-------1--1-----------0--0----------0--0---|
G|-------0--0-------2--2-----------0--0----------2--2---|
D|--------------0---------------0-------------0---------|
A|---0--------------------------------------2-----------|
E|----------------------------3-------------------------|

 we know that it's probably     ma--(key change)-gic


(Change capo one fret (or however you feel singing it) up)


[Verse]

     G            Em7         Am7             D

e|--------3--3----------0--0--------0--0------------2--2---|
B|--------0--0----------0--0--------1--1------------3--3---|
G|--------0--0----------0--0--------0--0------------2--2---|
D|-----0-------------0------------------------0------------|
A|-----------------------------0---------------------------|
E|---3-------------0---------------------------------------|

     Have you been half asleep, have you heard voices
 
 
     G            Em7          C

e|--------3--3----------0--0--------0--0------------0--0------|
B|--------0--0----------0--0--------1--1------------1--1------|
G|--------0--0----------0--0--------0--0------------0--0------|
D|-------------------------------2--------2------2--------0---|
A|-----------------------------3---------------3--------------|
E|---3-------------0------------------------------------------|

   I've heard them calling my  name.


     G            Em7         Am7             D

e|--------3--3----------0--0--------0--0------------2--2---|
B|--------0--0----------0--0--------1--1------------3--3---|
G|--------0--0----------0--0--------0--0------------2--2---|
D|-----0-------------0------------------------0------------|
A|-----------------------------0---------------------------|
E|---3-------------0---------------------------------------|

     Is  it the sweet sound, that called the young sailors


     G            Em7          C

e|--------3--3----------0--0--------0--0------------0--0------|
B|--------0--0----------0--0--------1--1------------1--1------|
G|--------0--0----------0--0--------0--0------------0--0------|
D|-------------------------------2--------2------2--------0---|
A|-----------------------------3---------------3--------------|
E|---3-------------0------------------------------------------|

 The voice might be one in the same


[Pre-chorus]


   Cmaj7

e|---------0--0-------0--0----------0--0-------0--0---|
B|---------0--0-------0--0----------0--0-------0--0---|
G|---------0--0-------0--0----------0--0-------0--0---|
D|-----2------------------------2---------------------|
A|---3------------3-----------3------------3----------|
E|----------------------------------------------------|

    I've heard it too many times to ignore it


    Bm7

e|--------2--2--------2--2-|------2--2--------2--2---|
B|--------0--0--------0--0-|------0--0--------0--0---|
G|--------2--2--------2--2-|------2--2--------2--2---|
D|-----0-------0----0------|---0-------0----0--------|
A|---2------------2--------|-2------------2----------|
E|-------------------------|-------------------------|

It's something that I'm supposed to be


[Chorus]

    Am7        D        Bm7      E7

e|----------------2--2-----2--2----------0---|
B|------1--1------3--3-----0--0--------0-----|
G|------0--0------2--2-----2--2------1-------|
D|------2--2---0-------------------0---------|
A|---0-------------------2-------------------|
E|-------------------------------0-----------|

Someday we'll find it,  a rainbow connection


    Am7       D7              G          C/G       G          C/G

e|------0--0-------2--2------------3--3--------0-|------3--3--------0---|
B|------1--1-------1--1------------0--0--------1-|------0--0--------1---|
G|------0--0-------2--2------------0--0--------0-|------0--0--------0---|
D|-------------0----------------0-----------2----|---0-----------2------|
A|---0-------------------------------------------|----------------------|
E|----------------------------3-----------3------|-3-----------3--------|            
Submit corrections

↑ Back to top | Tablatures and chords for acoustic guitar and electric guitar, ukulele, drums are parodies/interpretations of the original songs. You may use it for private study, scholarship, research or language learning purposes only