» » »

Mudvayne - Severed Bass

Artists:  A B C D E F G H I J K L M N O P Q R S T U V W X Y Z # 

Severed Bass

(ver. 1) Click to play this song!
Mudvayne
 Rating:
4/5 (4 votes)


 Severed lessons Tabs too difficult? Try these video lessons and learn fast
 
                (4String)
Instrument: Bass 	
Tuning: B F# B E  (Low to High)

This is my first tab.  I know that Ryan plays a five string but right now I just have a 4 string, anyways Ryan usually just uses the fifth sting for slapping proposes. I think pelvicthrust’s tuning is correct so I am using so here it is.
I put it in order but there is a couple of them that repeat but you can figure it out.

B= Bend            S= Slap
P= pull-off        P= Pluck (under)
H= hammer on  /= slide

	
Intro( 0:07)
[------------14---14---15----12----------------------------------]
[--------13-----------------------------14----13b----------------]
[--12------------------------------------------------------------]
[----------------------------------------------------------------]

[------------14--14--15--14--12-----------------------------------]
[-------13--------------------------------------------------------]
[--12-------------------------------------14----------------------]
[------------------------------------------------12b/-------------]

(0:13)
[--9----8--9-----------------------------6-----------------------]
[--7----6--7----------- -----------------6-----------------------]
[----------------------------------------------------------------]
[---------------------------0--0--0--0--------0--0--0--0---------]
                            s  s  s  s        s  s  s  s
(0:21)
[-------------------------------------------------]
[-------------------------------------------------]
[-------------------------------------------------]
[--0--0--0--0-0--0--0--0------------h1-0--h1------]

(0:25)
[----------------------------------------------------------------]
[----------------------------------------------------------------]
[------------------------------------------------------8/--------]
[---0-0-0-2----0-1-0-0-1---------0-2-0-1------/9-----------------]
                                                       p
[----------------------------------------------------------------]
[----------------------------------------------------------------]
[----------------------------------------------------------------]
[--0-0-0-1------0-5-3-0---------0-1-0-1--------------------------]


(0:31)
2nd time
[----------------------------------------------------------------]
[-----------------------------------------------------1----------]
[----------------------------------------------------------0-----]
[---0-0-0-2----0-1-0-0-1---------0-2-0-1-------------------------]
                                                     p      p
[----------------------------------------------------------------]
[----------------------------------------------------------------]
[----------------------------------------------------------------]
[--0-0-0-1------0-5-3-0---------0-1-0-1------------5-------------]

(0:39)
[----------------------------------------------------------------]
[----------------------------------------------------------------]
[----------------------------------------------------------------]
[-----5-3-0------00-5-7-0----------------------------------------]
repeat
(0:49)
[----------------------------------------------------------------]
[----------------------------------------------------------------]
[------------------------------------------------------8/--------]
[---0-0-0-2----0-1-0-0-1---------0-2-0-1------/9-----------------]
(1:03)                                                 p  
Chorus
[--------------------------------5-5--5-5--5-5--5-5-----------]
[-------------------------------------------------------------]
[----4-5--4-5--4-5--4-5----------4-4--4-4--4-4--4-4-----------]
[-------------------------------------------------------------]


(1;06)
[----------------------------------------------------------------]
[----------------------------------------------------------------]
[----4--4--0--3--5--1--1--3--3--3--------------------------------]
[---------------------------------------------5-3-0--------------]

[------------------------------------------9----------------------]
[-------------------------------3-----7--8------------------------]
[--4--4--0--3--5--------------------------------------------------]
[-----------------------------------------------------------------]
                                      p  p p
[----------------------------------------------------------------]
[----------------------------------------------------------------]
[----4--4--0--3--5--1--1--3--3--3--------------------------------]
[---------------------------------------------5-3-0--------------]


[------------------------------------------9----------------------]
[-------------------------------3-----7--8------------------------]
[--4--4--0--3--5--------------------------------------------------]
[-----------------------------------------------------------------]
                                      p   p p
(1:44)
[----------------------------------------------5h7p5------------9/----------]
[---------------------------------------------------------------9/----------]
[--------------------------------9----------------------------9-------------]
[--0--3--0--5--0--0--0--7\--------0---0-------------0-7---------------------]
(1:57) There is a couple of these                             p  p
[----------------------------------------------------------------]
[----------------------------------------------------------------]
[----------------------------------------------------------------]
[--5--3--0--------------0--9--7--0-------------------------------]
(2:21) let notes ring a little
[----------------------------------------------------------------]
[----------------------------------------------------------------]
[---------19--17--15—12h14---------------------------------------]
[---0------------------------------------0-5-3-0-----------------]
when the singing starts

[------------------------------------------------------------------]
[------------------------------------------------------------------]
[-----19--17--15--14/----------------------------------------------]
[-0-----------------------------------0-5-3-0----------------------]

(2:35)

[------14----12---10----9----5/-------------------------------]
[-------------------------------------------------------------]
[---/12----10----8-----7-----3/-------------------------------]
[0--------------------------------------------0--5--3--0------]

[------14----12---10----9-----------------------------]
[-----------------------------------------------------]
[---/12----10----8-----7------------------------------]
[0-------------------------------------0--5--3—0------]

[------14----12---10----9----5-----------------------9----]
[----------------------------------------------------7-0--]
[---/12----10----8-----7-----3----------------------------]
[0-----------------------------------------0-0-0-0--------]



(3;00)
[------------------------------------------------------9-9-9----]
[------------------------------------------------------7-7-7----]
[---------------------------------------------------------------]
[-----5-0-5-0-5----0-0-0-0-0------------------------------------]

[---------------------------------------------------8--8--8---]
[---------------------------------------------------10-10-10--]
[-------------------------------------------------------------]
[-----5-0-5-0-5----0-0-0-0-0----------------------------------]



[----------------------------------------------------8--8--8----]
[----------------------------------------------------11-11-11---]
[---------------------------------------------------------------]
[-----5-0-5-0-5----0-0-0-0-0------------------------------------]

[-------------------------------------------------------5-5-5--]
[-------------------------------------------------------7-7-7--]
[--------------------------------------------------------------]
[-----5-0-5-0-5----0-0-0-0-0-----------------------------------]

[-----------------------------------------------------4-4-4----]
[-----------------------------------------------------6-6-6----]
[--------------------------------------------------------------]
[-----5-0-5-0-5----0-0-0-0-0-----------------------------------]


[-----------------------------------------------------5-5-5----]
[-----------------------------------------------------7-7-7----]
[--------------------------------------------------------------]
[-----5-0-5-0-5----0-0-0-0-0-----------------------------------]

this part he taps all the of notes with his right finger tips will holding the 2 bottom 11’s


I think It is repeated 11 times 
[--17---18-17-----------------17---18-17----------------------]
[17-----------17-18-17-15-14/--17-----------17-18\14----------]
[-------------------------------------------------------------]
[-------------------------------------------------------------]
 Then this when the drums and guitar are playing
                                
[------17---18-17-------------------17---18-17-------------------]
[----------------17-18-17\15-------------------17-18\12----------]
[----------------------------------------------------------------]
[----------------------------------------------------------------]

end with chorus
            
Submit corrections



        Severed lessons Hard to play? Try these video lessons and learn fast Severed lessons
        
↑ Back to top | Tablatures and chords for acoustic guitar and electric guitar, ukulele, drums are parodies/interpretations of the original songs. You may use it for private study, scholarship, research or language learning purposes only