» » »

Mudvayne - (Per) Version Of A Truth Tabs

Artists:  A B C D E F G H I J K L M N O P Q R S T U V W X Y Z # 

(Per) Version Of A Truth Tabs

(ver. 3) Click to play this song!
Mudvayne
 Rating:
4/5 (4 votes)

 (Per) Version Of A Truth lessons Tabs too difficult? Try these video lessons and learn fast
 
                (Per) Version Of A Truth                             


                                                                        Mudvayne
Guug

Duration Legend
---------------
W - whole
H - half
Q - quarter
E - 8th
S - 16th
T - 32nd
X - 64th
. - note dotted
|-n-|  - n-tuplets


Tablature Legend
----------------

br - bendRelease
S - shift slide


Verse

     S S S S S S S S S S S S S S S S    S S S S S S S S S S S S S  S E     
D||----------------------------------|------------------------------------|
A||----------------------------------|------------------------------------|
F||----------------------------------|--------------------------8S-7------|
C||--8-8-8-------8-8-8-------8-8-----|--8-8-8-------8-8-8-----------------|
G||--5-5-5-0---0-5-5-5-0---0-5-5-----|--5-5-5-0---0-5-5-5-0---0-6S-5------|
C||--------0---0-------0---0-----6-6-|--------0---0-------0---0------6br--|


  S S S S S S S S S S S S S S S S    S S S S S S S S S S S S S S S S  
----------------------------------|----------------------------------|
----------------------------------|----------------------------------|
----------------------------------|----------------------------------|
--8-8-8-------8-8-8-------8-8-----|--8-8-8-------8-8-8---8-8-8---8---|
--5-5-5-0---0-5-5-5-0---0-5-5-----|--5-5-5-0---0-5-5-5-0-5-5-5---5---|
--------0---0-------0---0-----6-6-|--------0---0-------0-------6---6-|



  S S S S S S S S S S S S S S S S    S S S S S S S S S S S S S  S E     
----------------------------------|------------------------------------|
----------------------------------|------------------------------------|
----------------------------------|--------------------------8S-7------|
--8-8-8-------8-8-8-------8-8-----|--8-8-8-------8-8-8-----------------|
--5-5-5-0---0-5-5-5-0---0-5-5-----|--5-5-5-0---0-5-5-5-0---0-6S-5------|
--------0---0-------0---0-----6-6-|--------0---0-------0---0------6br--|


  S S S S S S S S S S S S S S S S    S S S S S S S S S S S S S S S S  
----------------------------------|----------------------------------|
----------------------------------|----------------------------------|
----------------------------------|----------------------------------|
--8-8-8-------8-8-8-------8-8-----|--8-8-8-------8-8-8---8-8-8---8---|
--5-5-5-0---0-5-5-5-0---0-5-5-----|--5-5-5-0---0-5-5-5-0-5-5-5---5---|
--------0---0-------0---0-----6-6-|--------0---0-------0-------6---6-|


  PM PM PM   PM PM PM                                       
  T  T  T  T T  T  T  T    S S S S S S S S S S S S S S S S  
------------------------|----------------------------------|
------------------------|----------------------------------|
------------------------|----------------------------------|
------------------------|--8-8-8-------8-8-8-------8-8-----|
--0--0--0----0--0--0----|--5-5-5-0---0-5-5-5-0---0-5-5-----|
--0--0--0----0--0--0----|--------0---0-------0---0-----6-6-|


  S S S S S S S S S S S S S  S E       S S S S S S S S S S S S S S S S  
------------------------------------|----------------------------------|
------------------------------------|----------------------------------|
--------------------------8S-7------|----------------------------------|
--8-8-8-------8-8-8-----------------|--8-8-8-------8-8-8-------8-8-----|
--5-5-5-0-----5-5-5-0-----6S-5------|--5-5-5-0---0-5-5-5-0---0-5-5-----|
--------0-----------0----------6br--|--------0---0-------0---0-----6-6-|


  S S S S S S S S S S S S S S S S    S S S S S S S S S S S S S S S S  
----------------------------------|----------------------------------|
----------------------------------|----------------------------------|
----------------------------------|----------------------------------|
--8-8-8-------8-8-8---8-8-8---8---|--8-8-8-------8-8-8-------8-8-----|
--5-5-5-0---0-5-5-5-0-5-5-5---5---|--5-5-5-0---0-5-5-5-0---0-5-5-----|
--------0---0-------0-------6---6-|--------0---0-------0---0-----6-6-|


  S S S S S S S S S S S S S  S E       S S S S S S S S S S S S S S S S  
------------------------------------|----------------------------------|
------------------------------------|----------------------------------|
--------------------------8S-7------|----------------------------------|
--8-8-8-------8-8-8-----------------|--8-8-8-------8-8-8-------8-8-----|
--5-5-5-0---0-5-5-5-0---0-6S-5------|--5-5-5-0---0-5-5-5-0---0-5-5-----|
--------0---0-------0---0------6br--|--------0---0-------0---0-----6-6-|


  S S S S S S S S S S S S S S S S  
----------------------------------|
----------------------------------|
----------------------------------|
--8-8-8-------8-8-8---8-8-8---8---|
--5-5-5-0---0-5-5-5-0-5-5-5---5---|
--------0---0-------0-------6---6-|


         PM PM PM PM PM      PM PM PM PM PM      PM PM  
    S  S S  S  T  T  S  S  S S  S  T  T  S  S  S S  S   
|------------------------------------------------------|
|------------------------------------------------------|
|*-----------------------------------------------------|
|*-----------------------------------------------------|
|---0h-1-1--1--1--1--1--0h-1-1--1--1--1--1--0h-1-1--1--|
|---0h-1-1--1--1--1--1--0h-1-1--1--1--1--1--0h-1-1--1--|


       PM PM PM PM PM      PM                        
  S  S S  S  T  T  S  S  S S  S  S S   S  S  S  S    
---------------------------------------------------||
---------------------------------------------------||
------------------------------7S-5-5S-10-10-10-10-*||
--------------------------------------------------*||
--0h-1-1--1--1--1--1--0h-1-1--5S-3-3S--8--8--8--8--||
--0h-1-1--1--1--1--1--0h-1-1-----------------------||


                              W                                      
  S S S S S S S S S S S S S S E     S S S S S S S S S S S S S S S S  
---------------------------------|----------------------------------|
---------------------------------|----------------------------------|
---------------------------------|----------------------------------|
--8-8-8-------8-8-8-------8-8----|--8-8-8-------8-8-8---8-8-8---8---|
--5-5-5-0---0-5-5-5-0---0-5-5----|--5-5-5-0---0-5-5-5-0-5-5-5---5---|
--------0---0-------0---0-----6--|--------0---0-------0-------6---6-|


  E.  E.  E.   S  S  S  S  S  S  S    E.  E.  E.   S  S  S  S   S  S  S  
-----------------------------------|------------------------------------|
-----------------------------------|------------------------------------|
--------------10-10-10-10-10-10-10-|--------------10-10-10-10S-12-12-12-|
--0---0---0------------------------|--3---3---3-------------------------|
--0---0---0----8--8--8--8--8--8--8-|--3---3---3----8--8--8--8S-10-10-10-|
--0---0---0------------------------|--3---3---3-------------------------|


  E.  E.  E.   S  S  S  S  S  S  S  
-----------------------------------|
-----------------------------------|
--------------10-10-10-10-10-10-10-|
--0---0---0------------------------|
--0---0---0----8--8--8--8--8--8--8-|
--0---0---0------------------------|


  PM PM PM       PM PM PM PM                 
  T  T  S  S S S S  T  T  S  S E  S S S S S  
--------------------------------------------|
--------------------------------------------|
--------------------------------------------|
------------------------------------8-8-8-8-|
--3--0--0--2-3---0--3--0--0--2-3--3-8-8-8-8-|
--3--0--0--2-3---0--3--0--0--2-3--3-8-8-8-8-|


  E.  E.  E.   S  S  S  S  S  S  S    E.  E.  E.   S  S  S  S   S  S  S  
-----------------------------------|------------------------------------|
-----------------------------------|------------------------------------|
--------------10-10-10-10-10-10-10-|--------------10-10-10-10S-12-12-12-|
--0---0---0------------------------|--3---3---3-------------------------|
--0---0---0----8--8--8--8--8--8--8-|--3---3---3----8--8--8--8S-10-10-10-|
--0---0---0------------------------|--3---3---3-------------------------|


  E.  E.  E.   S  S  S  S  S  S  S  
-----------------------------------|
-----------------------------------|
--------------10-10-10-10-10-10-10-|
--0---0---0------------------------|
--0---0---0----8--8--8--8--8--8--8-|
--0---0---0------------------------|


    PM PM PM       PM PM PM PM       PM PM PM PM       
    T  T  S  S S S S  T  T  S  S S S S  T  T  S  E     
|----------------------------------------------------||
|----------------------------------------------------||
|*--------------------------------------------------*||
|*--------------------------------------------------*||
|---3--0--0--2-3---0--3--0--0--2-3---0--3--3--0------||
|---3--0--0--2-3---0--3--0--0--2-3---0--3--3--0------||


  S S S S S S S S S S S S S S S S    S S S S S S S S S S S S S  S E     
----------------------------------|------------------------------------|
----------------------------------|------------------------------------|
----------------------------------|--------------------------8S-7------|
--8-8-8-------8-8-8-------8-8-----|--8-8-8-------8-8-8-----------------|
--5-5-5-0---0-5-5-5-0---0-5-5-----|--5-5-5-0---0-5-5-5-0---0-6S-5------|
--------0---0-------0---0-----6-6-|--------0---0-------0---0------6br--|


  S S S S S S S S S S S S S S S S    S S S S S S S S S S S S S S S S  
----------------------------------|----------------------------------|
----------------------------------|----------------------------------|
----------------------------------|----------------------------------|
--8-8-8-------8-8-8-------8-8-----|--8-8-8-------8-8-8---8-8-8---8---|
--5-5-5-0---0-5-5-5-0---0-5-5-----|--5-5-5-0---0-5-5-5-0-5-5-5---5---|
--------0---0-------0---0-----6-6-|--------0---0-------0-------6---6-|


  S S S S S S S S S S S S S S S S    S S S S S S S S S S S S S  S E     
----------------------------------|------------------------------------|
----------------------------------|------------------------------------|
----------------------------------|--------------------------8S-7------|
--8-8-8-------8-8-8-------8-8-----|--8-8-8-------8-8-8-----------------|
--5-5-5-0---0-5-5-5-0---0-5-5-----|--5-5-5-0-----5-5-5-0-----6S-5------|
--------0---0-------0---0-----6-6-|--------0-----------0----------6br--|


  S S S S S S S S S S S S S S S S    S S S S S S S S S S S S S S S S  
----------------------------------|----------------------------------|
----------------------------------|----------------------------------|
----------------------------------|----------------------------------|
--8-8-8-------8-8-8-------8-8-----|--8-8-8-------8-8-8---8-8-8---8---|
--5-5-5-0---0-5-5-5-0---0-5-5-----|--5-5-5-0---0-5-5-5-0-5-5-5---5---|
--------0---0-------0---0-----6-6-|--------0---0-------0-------6---6-|


  S S S S S S S S S S S S S S S S    S S S S S S S S S S S S S  S E     
----------------------------------|------------------------------------|
----------------------------------|------------------------------------|
----------------------------------|--------------------------8S-7------|
--8-8-8-------8-8-8-------8-8-----|--8-8-8-------8-8-8-----------------|
--5-5-5-0---0-5-5-5-0---0-5-5-----|--5-5-5-0---0-5-5-5-0---0-6S-5------|
--------0---0-------0---0-----6-6-|--------0---0-------0---0------6br--|


  S S S S S S S S S S S S S S S S    S S S S S S S S S S S S S S S S  
----------------------------------|----------------------------------|
----------------------------------|----------------------------------|
----------------------------------|----------------------------------|
--8-8-8-------8-8-8-------8-8-----|--8-8-8-------8-8-8---8-8-8---8---|
--5-5-5-0---0-5-5-5-0---0-5-5-----|--5-5-5-0---0-5-5-5-0-5-5-5---5---|
--------0---0-------0---0-----6-6-|--------0---0-------0-------6---6-|


  E.  E.  E.   S  S  S  S  S  S  S    E.  E.  E.   S  S  S  S   S  S  S  
-----------------------------------|------------------------------------|
-----------------------------------|------------------------------------|
--------------10-10-10-10-10-10-10-|--------------10-10-10-10S-12-12-12-|
--0---0---0------------------------|--3---3---3-------------------------|
--0---0---0----8--8--8--8--8--8--8-|--3---3---3----8--8--8--8S-10-10-10-|
--0---0---0------------------------|--3---3---3-------------------------|


  E.  E.  E.   S  S  S  S  S  S  S  
-----------------------------------|
-----------------------------------|
--------------10-10-10-10-10-10-10-|
--0---0---0------------------------|
--0---0---0----8--8--8--8--8--8--8-|
--0---0---0------------------------|


  PM PM PM       PM PM PM PM                 
  T  T  S  S S S S  T  T  S  S E  S S S S S  
--------------------------------------------|
--------------------------------------------|
--------------------------------------------|
------------------------------------8-8-8-8-|
--3--0--0--2-3---0--3--0--0--2-3--3-8-8-8-8-|
--3--0--0--2-3---0--3--0--0--2-3--3-8-8-8-8-|


  E.  E.  E.   S  S  S  S  S  S  S    E.  E.  E.   S  S  S  S   S  S  S  
-----------------------------------|------------------------------------|
-----------------------------------|------------------------------------|
--------------10-10-10-10-10-10-10-|--------------10-10-10-10S-12-12-12-|
--0---0---0------------------------|--3---3---3-------------------------|
--0---0---0----8--8--8--8--8--8--8-|--3---3---3----8--8--8--8S-10-10-10-|
--0---0---0------------------------|--3---3---3-------------------------|


  E.  E.  E.   S  S  S  S  S  S  S  
-----------------------------------|
-----------------------------------|
--------------10-10-10-10-10-10-10-|
--0---0---0------------------------|
--0---0---0----8--8--8--8--8--8--8-|
--0---0---0------------------------|


    PM PM PM       PM PM PM PM       PM PM PM PM       
    T  T  S  S S S S  T  T  S  S S S S  T  T  S  E   8x
|----------------------------------------------------||
|----------------------------------------------------||
|*--------------------------------------------------*||
|*--------------------------------------------------*||
|---3--0--0--2-3---0--3--0--0--2-3---0--3--3--0------||
|---3--0--0--2-3---0--3--0--0--2-3---0--3--3--0------||


  E.  E  S S  E  S S S S  S S S    E.  E  S E.  E  S E  E   
--------------------------------|--------------------------|
--------------------------------|--------------------------|
--------------------------------|--------------------------|
--------------------------------|------5--------5-------5--|
------7--7-7S-8--3-3-3-3s-5-5-5-|--------------------------|
--0-----------------------------|--3------3-3------3-3-----|


  E.  E  S S  E  S S S S  S S S    E.  E  S E.  E  S E  E   
--------------------------------|--------------------------|
--------------------------------|--------------------------|
--------------------------------|--------------------------|
--------------------------------|------5--------5-------5--|
------7--7-7S-8--3-3-3-3s-5-5-5-|--------------------------|
--0-----------------------------|--3------3-3------3-3-----|


    E.  E  S S  E  S S S S  S S S    E.  E  S E.  E  S E  E   3x
|---------------------------------|---------------------------||
|---------------------------------|---------------------------||
|*--------------------------------|--------------------------*||
|*--------------------------------|------5--------5-------5--*||
|-------7--7-7s-8--3-3-3-3s-5-5-5-|---------------------------||
|---0-----------------------------|--3------3-3------3-3------||


        PM PM PM PM PM      PM PM PM PM PM      PM PM    
   S  S S  S  T  T  S  S  S S  S  T  T  S  S  S S  S   3x
-------------------------------------------------------||
-------------------------------------------------------||
*-----------------------------------------------------*||
*-----------------------------------------------------*||
---0h-1-1--1--1--1--1--0h-1-1--1--1--1--1--0h-1-1--1---||
---0h-1-1--1--1--1--1--0h-1-1--1--1--1--1--0h-1-1--1---||


       PM PM PM PM PM      PM PM PM PM PM PM PM PM PM     
  S  S S  S  T  T  S  S  S S  S  T  T  S  T  T  T  T  E   
---------------------------------------------------------|
---------------------------------------------------------|
---------------------------------------------------------|
------------------------------------------------------0--|
--0h-1-1--1--1--1--1--0h-1-1--1--1--1--1--1--1--1--1--0--|
--0h-1-1--1--1--1--1--0h-1-1--1--1--1--1--1--1--1--1--0--|


  ^                                                      
  E.  E  S S   E  E  S S S S S    E.  E.  E.  E.  E  E   
-------------------------------|------------------------|
-------------------------------|------------------------|
------9--9-9S-10--5--5-5-7-7-7-|------------------------|
--0----------------------------|--3---3---3---3---1--1--|
--0---7--7-7S--8--3--3-3-5-5-5-|--3---3---3---3---1--1--|
--0----------------------------|--3---3---3---3---1--1--|


  E.  E  S S   E  E  S S S S S    E.  E.  E.  E.  E  E   
-------------------------------|------------------------|
-------------------------------|------------------------|
------9--9-9S-10--5--5-5-7-7-7-|------------------------|
--0----------------------------|--3---3---3---3---1--1--|
--0---7--7-7S--8--3--3-3-5-5-5-|--3---3---3---3---1--1--|
--0----------------------------|--3---3---3---3---1--1--|


  E.  E  S S   E  E  S S S S S    E.  E.  E.  E.  E  E   
-------------------------------|------------------------|
-------------------------------|------------------------|
------9--9-9S-10--5--5-5-7-7-7-|------------------------|
--0----------------------------|--3---3---3---3---1--1--|
--0---7--7-7S--8--3--3-3-5-5-5-|--3---3---3---3---1--1--|
--0----------------------------|--3---3---3---3---1--1--|


  E.  E  S S   E  E  S S S S S    E.  E.  E.  E.  S  S S  S  
-------------------------------|----------------------------|
-------------------------------|----------------------------|
------9--9-9S-10--5--5-5-7-7-7-|----------------------------|
--0----------------------------|--3---3---3---3-------------|
--0---7--7-7S--8--3--3-3-5-5-5-|--3---3---3---3---3h-5-3h-5-|
--0----------------------------|--3---3---3---3---3--5-3--5-|


  E.  E.  E.   S  S  S  S  S  S  S    E.  E.  E.   S  S  S  S   S  S  S  
-----------------------------------|------------------------------------|
-----------------------------------|------------------------------------|
--------------10-10-10-10-10-10-10-|--------------10-10-10-10S-12-12-12-|
--0---0---0------------------------|--3---3---3-------------------------|
--0---0---0----8--8--8--8--8--8--8-|--3---3---3----8--8--8--8S-10-10-10-|
--0---0---0------------------------|--3---3---3-------------------------|


  E.  E.  E.   S  S  S  S  S  S  S  
-----------------------------------|
-----------------------------------|
--------------10-10-10-10-10-10-10-|
--0---0---0------------------------|
--0---0---0----8--8--8--8--8--8--8-|
--0---0---0------------------------|


  PM PM PM       PM PM PM PM                 
  T  T  S  S S S S  T  T  S  S E  S S S S S  
--------------------------------------------|
--------------------------------------------|
--------------------------------------------|
------------------------------------8-8-8-8-|
--3--0--0--2-3---0--3--0--0--2-3--3-8-8-8-8-|
--3--0--0--2-3---0--3--0--0--2-3--3-8-8-8-8-|


  E.  E.  E.   S  S  S  S  S  S  S    E.  E.  E.   S  S  S  S   S  S  S  
-----------------------------------|------------------------------------|
-----------------------------------|------------------------------------|
--------------10-10-10-10-10-10-10-|--------------10-10-10-10S-12-12-12-|
--0---0---0------------------------|--3---3---3-------------------------|
--0---0---0----8--8--8--8--8--8--8-|--3---3---3----8--8--8--8S-10-10-10-|
--0---0---0------------------------|--3---3---3-------------------------|


  E.  E.  E.   S  S  S  S  S  S  S  
-----------------------------------|
-----------------------------------|
--------------10-10-10-10-10-10-10-|
--0---0---0------------------------|
--0---0---0----8--8--8--8--8--8--8-|
--0---0---0------------------------|


  PM PM PM       PM PM PM PM                 
  T  T  S  S S S S  T  T  S  S E  S S S S S  
--------------------------------------------|
--------------------------------------------|
--------------------------------------------|
------------------------------------8-8-8-8-|
--3--0--0--2-3---0--3--0--0--2-3--3-8-8-8-8-|
--3--0--0--2-3---0--3--0--0--2-3--3-8-8-8-8-|


  E.  E.  S E   S  S  S  S  S  S  S    E.  E.  E.   S  S  S  S   S  S  S  
------------------------------------|------------------------------------|
------------------------------------|------------------------------------|
---------------10-10-10-10-10-10-10-|--------------10-10-10-10S-12-12-12-|
--0---0---0-------------------------|--3---3---3-------------------------|
--0---0---0-----8--8--8--8--8--8--8-|--3---3---3----8--8--8--8S-10-10-10-|
--0---0---0-------------------------|--3---3---3-------------------------|


  E.  E.  E.   S  S  S  S  S  S  S  
-----------------------------------|
-----------------------------------|
--------------10-10-10-10-10-10-10-|
--0---0---0------------------------|
--0---0---0----8--8--8--8--8--8--8-|
--0---0---0------------------------|


  PM PM PM       PM PM PM PM                 
  T  T  S  S S S S  T  T  S  S E  S S S S S  
--------------------------------------------|
--------------------------------------------|
--------------------------------------------|
------------------------------------8-8-8-8-|
--3--0--0--2-3---0--3--0--0--2-3--3-8-8-8-8-|
--3--0--0--2-3---0--3--0--0--2-3--3-8-8-8-8-|

 
  E.  E.  S E   S  S  S  S  S  S  S    E.  E.  E.   S  S  S  S   S  S  S  
------------------------------------|------------------------------------|
------------------------------------|------------------------------------|
---------------10-10-10-10-10-10-10-|--------------10-10-10-10S-12-12-12-|
--0---0---0-------------------------|--3---3---3-------------------------|
--0---0---0-----8--8--8--8--8--8--8-|--3---3---3----8--8--8--8S-10-10-10-|
--0---0---0-------------------------|--3---3---3-------------------------|


  E.  E.  E.   S  S  S  S  S  S  S  
-----------------------------------|
-----------------------------------|
--------------10-10-10-10-10-10-10-|
--0---0---0------------------------|
--0---0---0----8--8--8--8--8--8--8-|
--0---0---0------------------------|


    PM PM PM       PM PM PM PM       PM PM PM PM       
    T  T  S  S S S S  T  T  S  S S S S  T  T  S  E   8x
|----------------------------------------------------||
|----------------------------------------------------||
|*--------------------------------------------------*||
|*--------------------------------------------------*||
|---3--0--0--2-3---0--3--0--0--2-3---0--3--3--0------||
|---3--0--0--2-3---0--3--0--0--2-3---0--3--3--0------||
            
Submit corrections


        (Per) Version Of A Truth lessons Hard to play? Try these video lessons and learn fast (Per) Version Of A Truth lessons
        
↑ Back to top | Tablatures and chords for acoustic guitar and electric guitar, ukulele, drums are parodies/interpretations of the original songs. You may use it for private study, scholarship, research or language learning purposes only