Home » M » Mudvayne »

Mudvayne - Nothing To Gein Tabs

Artists:  A B C D E F G H I J K L M N O P Q R S T U V W X Y Z # 

Nothing To Gein Tabs

(ver. 3) Click to play this song!
Mudvayne
I've revised this tab and made a few corrections.
                                                          
Intro/Verse. Played 3x Then Played 2x palm muted
C#--------------------------------------------------------------------------------
G#--------------------------------------------------------------------------------
E---------------------------------------------------------------------------------   
B--2-0-0-2-0-0-2-3-6-6-6-6-6-6-6-0-5-5-5-5-5-5-5/5\5-3-3-3-3-3-3-3----------------
F#-2-0-0-2-0-0-2-3-5-5-5-5-5-5-5-0-3-3-3-3-3-3-3/5\3-2-2-2-2-2-2-2----------------
B--2-0-0-2-0-0-2-3-6-6-6-6-6-6-6-0-3-3-3-3-3-3-3/5\3-2-2-2-2-2-2-2----------------
	
Chorus Played very heavy with lots of distortion. Played 3x   
C#-----------------------------------------------------------------
G#-----------------------------------------------------------------
E------------------------------------------------------------------
B--2-0-0-2-0-0-2-3-6-6-6-6-6-6-6-0-5-5-5-5-5-5-5/5\5-3-3-3-3-3-3-3-      
F#-2-0-0-2-0-0-2-3-5-5-5-5-5-5-5-0-3-3-3-3-3-3-3/5\3-2-2-2-2-2-2-2-
B--2-0-0-2-0-0-2-3-6-6-6-6-6-6-6-0-3-3-3-3-3-3-3/5\3-2-2-2-2-2-2-2-

Interlude
C#|----------------
G#|xxxxxxxxxxxxxxxx
E |xxxxxxxxxxxxxxxx
B |xxxxxxxxxxxxxxxx Played 9 measures 
F#|---------------- Played w/ wah pedal
B |----------------
   palm muted

Bridge 1
|----------------------------------------------- 
|----------------------------------------------- 
|----------------------------------------------- 4x
|-9--9--9--9--9--9---9---9--9--9--10-9--8-8-8-8- 
|-8--8--8--8--8--8---8---8--8--8--9--8--7-7-7-7- 
|-----------------------------------------------

Fill 1
C#---------------------
G#---------------------
E--------------------4- 4x
B--0h2p0-0-0h2p0-0-0-x-
F#-0h2p0-0-0h2p0-0-0-2-
B--0h2p0-0-0h2p0-0-0---

Bridge 1
|----------------------------------------------- 
|----------------------------------------------- 
|----------------------------------------------- 4x
|-9--9--9--9--9--9---9---9--9--9--10-9--8-8-8-8- 
|-8--8--8--8--8--8---8---8--8--8--9--8--7-7-7-7- 
|-----------------------------------------------

Fill 1
C#---------------------
G#---------------------
E--------------------4- 4x
B--0h2p0-0-0h2p0-0-0-x-
F#-0h2p0-0-0h2p0-0-0-2-
B--0h2p0-0-0h2p0-0-0---

Chorus Played 4x
C#-----------------------------------------------------------------
G#-----------------------------------------------------------------
E------------------------------------------------------------------
B--2-0-0-2-0-0-2-3-6-6-6-6-6-6-6-0-5-5-5-5-5-5-5/5\5-3-3-3-3-3-3-3-
F#-2-0-0-2-0-0-2-3-5-5-5-5-5-5-5-0-3-3-3-3-3-3-3/5\3-2-2-2-2-2-2-2-
B--2-0-0-2-0-0-2-3-6-6-6-6-6-6-6-0-3-3-3-3-3-3-3/5\3-2-2-2-2-2-2-2-

Fill 2
C#-------------------
G#-------------------
E--------------------
B--15p14-------------     played 11x
F#------15p14--------
B--------------------

Bridge 2 Played 12x
C#----------------------------------------------
G#----------------------------------------------      
E------------------------------7----10----------
B--0-0-0-0-0-0--0--0-0-0-0-0-0-x-0-0-x----------
F#-0-0-0-0-0-0--0--0-0-0-0-0-0-5-0-0-8----------
B--0-0-0-0-0-0--0--0-0-0-0-0-0---0-0------------

Chorus Played 3x 
C#-----------------------------------------------------------------
G#-----------------------------------------------------------------
E------------------------------------------------------------------
B--2-0-0-2-0-0-2-3-6-6-6-6-6-6-6-0-5-5-5-5-5-5-5/5\5-3-3-3-3-3-3-3-      
F#-2-0-0-2-0-0-2-3-5-5-5-5-5-5-5-0-3-3-3-3-3-3-3/5\3-2-2-2-2-2-2-2-
B--2-0-0-2-0-0-2-3-6-6-6-6-6-6-6-0-3-3-3-3-3-3-3/5\3-2-2-2-2-2-2-2-

Verse Played 5x
C#-----------------------------------------------------------------
G#-----------------------------------------------------------------
E------------------------------------------------------------------
B--2-0-0-2-0-0-2-3-6-6-6-6-6-6-6-0-5-5-5-5-5-5-5/5\5-3-3-3-3-3-3-3-     
F#-2-0-0-2-0-0-2-3-5-5-5-5-5-5-5-0-3-3-3-3-3-3-3/5\3-2-2-2-2-2-2-2-
B--2-0-0-2-0-0-2-3-6-6-6-6-6-6-6-0-3-3-3-3-3-3-3/5\3-2-2-2-2-2-2-2-

Outro the guitar plays this while the bass plays some notes. you play this 2x the fade out. 
C#-----------------------------------
G#-----------------------------------
E--9777-7777777777777777777777777777-
B--9777-7777777777777777777777777777-
F#-7555-5555555555555555555555555555-
B------------------------------------
            
Submit corrections

↑ Back to top | Tablatures and chords for acoustic guitar and electric guitar, ukulele, drums are parodies/interpretations of the original songs. You may use it for private study, scholarship, research or language learning purposes only