Home » M » Mudvayne »

Mudvayne - Just Bass

Artists:  A B C D E F G H I J K L M N O P Q R S T U V W X Y Z # 

Just Bass

(ver. 1) Click to play this song!
Mudvayne
 Rating:
4/5 (4 votes)
                Mudvayne - Just

tuning (low to high) - C G C F

rest for 8 bars in 4/4

Riff 1 x1
   e e e e e e e e   e e e e e e e e   e e e e e e e e   e e e e e e e e 
|------------------|-----------------|-----------------|-----------------|
|4-----------------|-----------------|-----------------|-----------------|
|4-2-2-2-----------|-----------------|-----------------|-----------------|
|--------3-3-3-0-0-|-0-3-2-0-2-3-2-0-|-3-3-3-6-6-6-5-5-|-5-3-3-3-5-5-5-5-|

  e e e e e e e e   e e e e e e e e   e e e e e e e e   e e e e e  e  e  e
|-----------------|-----------------|-----------------|---7-7-7/10-10-10-10-|
|-----------------|-----------------|-----------------|---X-X-X-X--X--X--X--|
|-2-2-2-----------|-----------------|-----------------|---5-5-5/8--8--8--8--|
|-------3-3-3-0-0-|-0-3-2-0-2-3-2-0-|-3-3-3-6-6-6-5-5-|-5-------------------|

Riff 2 x2
  e e Q   E e Se S  q   Ee e ssss e    e ssss e s sssss e   s ssssss s s s s s e e
|-----------7-----|-----------------|---------------------|----------------------14-|
|-----------6-----|------------0----|------3---------6----|------9-----------12--13-|
|-----------------|-----------------|---------------------|----------------------12-|
|-0-0----------6--|-6\---0-0-XX-X-0-|-/3-XX-3-3-3/6XX-6-6-|-6/9XX-99/120h1212--0-13-|
  s s       p  s    s    s s ssps s    s ssps s s  ssps s   s  sspss   s   s p s

Riff 2A x1
  e e Q   E e Se S  q   e s s s E.e   e    e ssss e s sssss e   s ssssss s s s s s e e
|-----------7-----|---------------13\---|---------------------|----------------------14-|
|-----------6-----|---------------12\---|------3---------6----|------9-----------12--13-|
|-----------------|-------------------0-|---------------------|----------------------12-|
|-0-0----------6--|-6\--X/121212--------|-/3-XX-3-3-3/6XX-6-6-|-6/9XX-99/120h1212--0-13-|
  s s       p  s    s     t t t   p   s    s ssps s s  ssps s   s  sspss   s   s p s

Riff 2B x1
  e e Q   E e Se S  q   Ee e ssss e    e e e e e e e e   e e e sse e  e  e
|-----------7-----|-----------------|------------------|--------------------|
|-----------6-----|------------0----|------3-------6---|-----9--------12----|
|-----------------|-----------------|------------------|--------------------|
|-0-0----------6--|-6\---0-0-XX-X-0-|-/3-3---3-3/6---6-|-6/9---999/12----12-|
  s s       p  s    s    s s ssps s    s s p s s   p s   s   p sss    p  s

Riff 1 x2

Fill 1 x1
  sssS Q  E e Se S  q  E sssE. s E.
|-----------7-----|----------------|
|-----------6-----|------------0---|
|-----------------|----------------|
|-000----------6--|-6\---000-------|
  sss       p  s    s    sss   p

Riff 2 x2

Riff 2C x1
  e e Q   E e Se S  q   e s s s E.e  e    e ssss e s sssss e   s ssssss s s s s s e e
|-----------7-----|---------------16-\-|---------------------|----------------------14-|
|-----------6-----|---------------15-\-|------3---------6----|------9-----------12--13-|
|-----------------|--------------------|---------------------|----------------------12-|
|-0-0----------6--|-6\--X/121212-------|-/3-XX-3-3-3/6XX-6-6-|-6/9XX-99/120h1212--0-13-|
  s s       p  s    s     t t t   p       s ssps s s  ssps s   s  sspss   s   s p s

Riff 2B x1

Riff 1 x2

Riff 3 x1
   e e e e e e e e   e e e e e e   e e   e e e e e e e e    e e e e e e   
|------------------|-------------------|-----------------|--------------|
|-/7-7-7-7-7-7-7-7-|-7-7-7-7-7-7-7h8p7-|-5-5-5-5-5-5-5-5-|3-5-5-5-5-5-7-|
|------------------|-------------------|-----------------|4-------------|
|------------------|-------------------|-----------------|--------------|

   e e e e e e e e   e e e e e e e e     e e e e e e e e    e e e e e e
|------------------|-----------------|-------------------|--------------|
|4-8-8-8-8-8-8-8-8-|-8-8-8-8-8-8-7-5-|-5h7-7-7-7-7-7-7-7-|3-7-7-7-7-7-7-|
|4-----------------|-----------------|-------------------|4-------------|
|------------------|-----------------|-------------------|--------------|

     e e e e e e e e   e e e e e e   e e   e e e e e e e e    e e e e e e
|--------------------|-------------------|-----------------|--------------|
|4-5h7-7-7-7-7-7-7-7-|-7-7-7-7-7-7-7h8p7-|-5-5-5-5-5-5-5-5-|3-5---5---5-7-|
|4-------------------|-------------------|-----------------|4---5---5-----|
|--------------------|-------------------|-----------------|--------------|

   e e e e e e e e   e e e e e e e e     e e e e e e e e    e e e e e e
|------------------|-----------------|-------------------|--------------|
|4-8-8-8-8-8-8-8-8-|-8-8-8-8-8-8-7-5-|-5h7-7-7-7-7-7-7-7-|3-7-----------|
|4-----------------|-----------------|-------------------|4---5-6-5-3-5-|
|------------------|-----------------|-------------------|--------------|

Riff 4 x2
   w           e   e e e e e e e   w            e   e e e e e
|-----------|--------------------|----------|-----------------|
|4----------|--------------------|----------|3----------------|
|4----------|-----/5-6-5-3-5-----|----------|4-----/5-6-5-3-5-|
|--0--------|-(0)------------0-3-|-0--------|--(0)------------|

Rest for 2 bars in 4/4

Riff 1 x2

Fill 2 x1
  sssS Q E e Se S  sssS Q H
|----------7-----|------------||
|----------6-----|------------||
|----------------|------------||
|-000---------6--|-000--------||
  sss      p  s    sss
            
Submit corrections

↑ Back to top | Tablatures and chords for acoustic guitar and electric guitar, ukulele, drums are parodies/interpretations of the original songs. You may use it for private study, scholarship, research or language learning purposes only