» » »

Mudvayne - Internal Primates For Ever Bass

Artists:  A B C D E F G H I J K L M N O P Q R S T U V W X Y Z # 

Internal Primates For Ever Bass

(ver. 1) Click to play this song!
Mudvayne
 Rating:
4/5 (4 votes)


 Internal Primates For Ever lessons Tabs too difficult? Try these video lessons and learn fast
 
                Bassist: a certain Ryknow, apparantly he's a bit good
tuning: drop c (yes yes i know Ryknow's got a five string blah blah blah)
Intro 
 
F-------------|
C-------------|
G-------------|
C 0-00-000-000|
  S SS SSS SSS
 
 
 
chorus
 
F-----------------------|
C-----------------------|
G-----------------------|
C-4-0-1-1-0-1--0-0-3-2-3|
 
Verse 1 and 2
 
F--------|
C-------3|
G-------1|
C-0X0X0X-|         
  SLSLSLP
 
Interlude
 
F-------------|     and F-----------------------|
C-------------|         C-----------------------|  
G-5------3-4-5|         G-555-----------33-44-55|
C--3-5-6------|         C----333-555-666--------|
  SS S S S S S
 
2nd part of interlude (weird bit)
 
F--------------------|
C-------------------6|
G-5------------------|
C--3-3-5-333-5-33-5--|
 
3rd verse **********doe~~~~~~~~~~~#####
 
F-----------------------|
C----------------------6|
G-5---------------------|
C--5-5-6-5-5-5-6-5-5-6--|
 (same rythm as for 2nd intelude)
 
then it goes back to the intro, then the chorus.
            
Submit corrections



        Internal Primates For Ever lessons Hard to play? Try these video lessons and learn fast Internal Primates For Ever lessons
        
↑ Back to top | Tablatures and chords for acoustic guitar and electric guitar, ukulele, drums are parodies/interpretations of the original songs. You may use it for private study, scholarship, research or language learning purposes only