Home » M » Mudvayne »

Mudvayne - Fall Into Sleep Tabs

Artists:  A B C D E F G H I J K L M N O P Q R S T U V W X Y Z # 

Fall Into Sleep Tabs

(ver. 1) Click to play this song!
Mudvayne
                
Gtr I (C G C F A D) - 'Clean'
Gtr II (C G C F A D) - 'Distortion'


 Intro
  Q=74
  N.C.
 4/4
  Gtr I
  S S E E E E E E E   S S E E E E E E E
|-------------------|-------------------|
|-------------------|-------------------|
|-------------------|-------------------|
|-------------------|-------------------|
|-3h5-5-5-5-5-5-5-5-|-3h5-5-5-5-5-5-5-5-|
|-----0-0-0-0-0-0-0-|-----0-0-0-0-0-0-0-|


  S S E E E E E E E   S S E E E E E E E
|-------------------|--------------------|
|-------------------|--------------------|
|-------------------|--------------------|
|-------------------|--------------------|
|-3h5-5-5-5-5-5-5-5-|-3h5-5-5-5-5-5-5-5--|
|-----0-0-0-0-0-0-0-|-----0-0-0-0-0-0-0--|


  N.C.
  S  S  S S  S  S  S S  S  S S  S  S  T  T  S  S
|------------------------------------------------|
|------------------------------------------------|
|------------------------------------------------|
|-0-10h12------12----0-10h12-0-10h12-12h13p12-10-|
|------------------------------------------------|
|---------0h10----12-----------------------------|


  S  S  S S  S  S  S S  S  S S  S  S  T  T  S  S
|------------------------------------------------|
|------------------------------------------------|
|------------------------------------------------|
|-0-10h12------12----0-10h12-0-10h12-12h13p12-10-|
|------------------------------------------------|
|---------0h10----12-----------------------------|


 Verse
  N.C.
  S  S  S S  S  S  S S  S  S S  S  S  T  T  S  S
|------------------------------------------------|
|------------------------------------------------|
|------------------------------------------------|
|-0-10h12------12----0-10h12-0-10h12-12h13p12-10-|
|------------------------------------------------|
|---------0h10----12-----------------------------|


  S S S S  S S  E  S S S S S S E
|---------------------------------|
|---------------------------------|
|-----7---10---10\-----5-------7--|
|-------8----8-----------3--------|
|---8----------------3-------5----|
|-8----------------3-------5------|


  N.C.
  S  S  S S  S  S  S S  S  S S  S  S  T  T  S  S
|------------------------------------------------|
|------------------------------------------------|
|------------------------------------------------|
|-0-10h12------12----0-10h12-0-10h12-12h13p12-10-|
|------------------------------------------------|
|---------0h10----12-----------------------------|


  S  S  S S  S  S  S S  S  S S  S  S  T  T  S  S
|------------------------------------------------|
|------------------------------------------------|
|------------------------------------------------|
|-0-10h12------12----0-10h12-0-10h12-12h13p12-10-|
|------------------------------------------------|
|---------0h10----12-----------------------------|


  N.C.
  S  S  S S  S  S  S S  S  S S  S  S  T  T  S  S
|------------------------------------------------|
|------------------------------------------------|
|------------------------------------------------|
|-0-10h12------12----0-10h12-0-10h12-12h13p12-10-|
|------------------------------------------------|
|---------0h10----12-----------------------------|


  S S S S  S S  E  S S S S S S E
|---------------------------------|
|---------------------------------|
|-----7---10---10\-----5-------7--|
|-------8----8-----------3--------|
|---8----------------3-------5----|
|-8----------------3-------5------|


 Pre-Chorus
  N.C.
  S S E E E E E E E   S S E E E E E E E   S S E E E E E E E   S S E E E E E Q
|-------------------|-------------------|-------------------|------------------|
|-------------------|-------------------|-------------------|------------------|
|-------------------|-------------------|-------------------|------------------|
|-------------------|-------------------|-------------------|------------------|
|-3h5-5-5-5-5-5-5-5-|-3h5-5-5-5-5-5-5-5-|-3h5-5-5-5-5-5-5-5-|-3h5-5-5-5-5-5-5--|
|-----0-0-0-0-0-0-0-|-----0-0-0-0-0-0-0-|-----0-0-0-0-0-0-0-|-----0-0-0-0-0-0--|


   Chorus
    D5             N.C.             F5        C5F5/D
    Gtr II
    S S S S S S E.   S S S S  S E   S S S S S S Q.   T T e.
||--------------------------------|-------------------------|
||o-------------3-----------------|-------------------------|
||--------------2--/10-9-7-9-10s7-|-------------5-----------|
||--------------0-----------------|-------------3-----------|
||o-0-0-0-0-0-0-----/8-7-5-7--8s5-|-3-3-3-3-3-0-5-----------|
||--0-0-0-0-0-0-------------------|-3-3-3-3-3-0------3-3-0--|


  D5             N.C.             C5/F                           G5  F5
  S S S S S S E.   S S S S  S E    S  S  S  E  S  S  E  S  S  S  S S S S
|-------------------------------|------------------------------------------||
|-------------3-----------------|-----------------------------------------o||
|-------------2--/10-9-7-9-10s7-|-12-12-12-12-12-12-12-14-14-14\-----------||
|-------------0-----------------|-10-10-10-10-10-10-10---------------------||
|-0-0-0-0-0-0-----/8-7-5-7--8s5-|--8--8--8--8--8--8--8-12-12-12\-5-5-3-3--o||
|-0-0-0-0-0-0-------------------|--------------------------------5-5-3-3---||


 Verse
  N.C.
  PM--------|      PM-------------|
  S  S  S S  S  S  S S  S  S S  S  S  T  T  S  S
|------------------------------------------------|
|------------------------------------------------|
|------------------------------------------------|
|-0-10-12------12----0-10-12-0-10-12-12h13p12-10-|
|------------------------------------------------|
|---------0-10----12-----------------------------|


  PM--------|      PM-------------|
  S  S  S S  S  S  S S  S  S S  S  S  T  T  S  S
|------------------------------------------------|
|------------------------------------------------|
|------------------------------------------------|
|-0-10-12------12----0-10-12-0-10-12-12h13p12-10-|
|------------------------------------------------|
|---------0-10----12-----------------------------|


  N.C.
  PM--------|      PM-------------|
  S  S  S S  S  S  S S  S  S S  S  S  T  T  S  S
|------------------------------------------------|
|------------------------------------------------|
|------------------------------------------------|
|-0-10-12------12----0-10-12-0-10-12-12h13p12-10-|
|------------------------------------------------|
|---------0-10----12-----------------------------|


                   Eb5     F5
                   PM|     PM|
  S S S S  S S  E  S S S S S S S S
|----------------------------------|
|----------------------------------|
|-----7---10---10\-----5-5-----7-7-|
|-------8----8---------3-3-----5-5-|
|---8--------------3-3-----5-5-----|
|-8----------------3-3-----5-5-----|


  N.C.
  S  S  S S  S  S  S S  S  S S  S  S  T  T  S  S
|------------------------------------------------|
|------------------------------------------------|
|------------------------------------------------|
|-0-10h12------12----0-10h12-0-10h12-12h13p12-10-|
|------------------------------------------------|
|---------0h10----12-----------------------------|


  S  S  S S  S  S  S S  S  S S  S  S  T  T  S  S
|------------------------------------------------|
|------------------------------------------------|
|------------------------------------------------|
|-0-10h12------12----0-10h12-0-10h12-12h13p12-10-|
|------------------------------------------------|
|---------0h10----12-----------------------------|


  N.C.
  S  S  S S  S  S  S S  S  S S  S  S  T  T  S  S
|------------------------------------------------|
|------------------------------------------------|
|------------------------------------------------|
|-0-10h12------12----0-10h12-0-10h12-12h13p12-10-|
|------------------------------------------------|
|---------0h10----12-----------------------------|


  S S S S  S S  E  S S S S S S E
|---------------------------------|
|---------------------------------|
|-----7---10---10\-----5-------7--|
|-------8----8-----------3--------|
|---8----------------3-------5----|
|-8----------------3-------5------|


 Pre-Chorus
  N.C.
  Gtr I
  S S E E E E E E E   S S E E E E E E E
|-------------------|-------------------|
|-------------------|-------------------|
|-------------------|-------------------|
|-------------------|-------------------|
|-3h5-5-5-5-5-5-5-5-|-3h5-5-5-5-5-5-5-5-|
|-----0-0-0-0-0-0-0-|-----0-0-0-0-0-0-0-|


   Chorus
    D5             N.C.             F5        D5F5/D
    Gtr II
    S S S S S S E.   S S S S  S E   S S S S S S Q.   T T e.
||--------------------------------|-------------------------|
||o-------------3-----------------|-------------------------|
||--------------2--/10-9-7-9-10s7-|-------------5-----------|
||--------------0-----------------|-------------3-----------|
||o-0-0-0-0-0-0-----/8-7-5-7--8s5-|-3-3-3-3-3-0-5-----------|
||--0-0-0-0-0-0-------------------|-3-3-3-3-3-0------3-3-0--|


  D5             N.C.             C5/F                           G5  F5
  S S S S S S E.   S S S S  S E    S  S  S  E  S  S  E  S  S  S  S S S S
|-------------------------------|------------------------------------------||
|-------------3-----------------|-----------------------------------------o||
|-------------2--/10-9-7-9-10s7-|-12-12-12-12-12-12-12-14-14-14\-----------||
|-------------0-----------------|-10-10-10-10-10-10-10---------------------||
|-0-0-0-0-0-0-----/8-7-5-7--8s5-|--8--8--8--8--8--8--8-12-12-12\-5-5-3-3--o||
|-0-0-0-0-0-0-------------------|--------------------------------5-5-3-3---||


 Bridge
  N.C.
   S  S  S  S  S  S  S  S  S  S  S  S  S  S  S  S
|-------------------------------------------------|
|-------------------------------------------------|
|----------12-12-12----------12-12-12-------------|
|-------------------------------------------15----|
|-13-13-13----------13-13-13----------13-13----13-|
|-------------------------------------------------|


   S  S  S  S  S  S  S  S  S  S  S  S  S  S  S  S
|-------------------------------------------------|
|-------------------------------------------------|
|----------10-10-10----------10-10-10-------------|
|-------------------------------------------12----|
|-12-12-12----------12-12-12----------12-12----12-|
|-------------------------------------------------|


  N.C.
   S  S  S  S  S  S  S  S  S  S  S  S  S  S  S  S
|-------------------------------------------------|
|-------------------------------------------------|
|----------15-15-15-14-14-14-12-12-12-14-14-14-14-|
|-12-12-12----------------------------------------|
|-------------------------------------------------|
|-------------------------------------------------|


   S  S  S  S  S  S  S  S  S  S  S  S  S  S  S  S
|-------------------------------------------------|
|-------------------------------------------------|
|----------15-15-15-14-14-14-12-12-12-14-14-14-14-|
|-12-12-12----------------------------------------|
|-------------------------------------------------|
|-------------------------------------------------|


  N.C.
   S  S  S  S  S  S  S  S  S  S  S  S  S  S  S  S
|-------------------------------------------------|
|-------------------------------------------------|
|----------12-12-12----------12-12-12-------------|
|-------------------------------------------15----|
|-13-13-13----------13-13-13----------13-13----13-|
|-------------------------------------------------|


   S  S  S  S  S  S  S  S  S  S  S  S  S  S  S  S
|-------------------------------------------------|
|-------------------------------------------------|
|----------10-10-10----------10-10-10-------------|
|-------------------------------------------12----|
|-12-12-12----------12-12-12----------12-12----12-|
|-------------------------------------------------|


  N.C.
   S  S  S  S  S  S  S  S  S  S  S  S  S  S  S  S
|-------------------------------------------------|
|-------------------------------------------------|
|----------15-15-15-14-14-14-12-12-12-14-14-14-14-|
|-12-12-12----------------------------------------|
|-------------------------------------------------|
|-------------------------------------------------|


   S  S  S  S  S  S  S  S  S  S  S  S  S  S  S  S
|-------------------------------------------------|
|-------------------------------------------------|
|----------15-15-15-14-14-14-12-12-12-14-14-14-14-|
|-12-12-12----------------------------------------|
|-------------------------------------------------|
|-------------------------------------------------|


 Pre-Chorus
  N.C.
  Gtr I
  S S E E E E E E E   S S E E E E E Q
|-------------------|------------------|
|-------------------|------------------|
|-------------------|------------------|
|-------------------|------------------|
|-3h5-5-5-5-5-5-5-5-|-3h5-5-5-5-5-5-5--|
|-----0-0-0-0-0-0-0-|-----0-0-0-0-0-0--|


 Chorus
  D5             N.C.             F5        D5F5/D     F5
  Gtr II
  S S S S S S E.   S S S S  S E   S S S S S S Q.   T T E.
|-------------------------------|-------------------------|
|-------------3-----------------|-------------------------|
|-------------2--/10-9-7-9-10s7-|-------------5--------5--|
|-------------0-----------------|-------------3--------3--|
|-0-0-0-0-0-0-----/8-7-5-7--8s5-|-3-3-3-3-3-0-5--------3--|
|-0-0-0-0-0-0-------------------|-3-3-3-3-3-0------3-3-3--|


  D5             N.C.             C5/F                           G5  F5
  S S S S S S E.   S S S S  S E    S  S  S  E  S  S  E  S  S  S  S S S S
|-------------------------------|-----------------------------------------|
|-------------3-----------------|-----------------------------------------|
|-------------2--/10-9-7-9-10s7-|-12-12-12-12-12-12-12-14-14-14\----------|
|-------------0-----------------|-10-10-10-10-10-10-10--------------------|
|-0-0-0-0-0-0-----/8-7-5-7--8s5-|--8--8--8--8--8--8--8-12-12-12\-5-5-3-3--|
|-0-0-0-0-0-0-------------------|--------------------------------5-5-3-3--|


  D5             N.C.             F5        D5F5/D     F5
  S S S S S S E.   S S S S  S E   S S S S S S Q.   T T E.
|-------------------------------|-------------------------|
|-------------3-----------------|-------------------------|
|-------------2--/10-9-7-9-10s7-|-------------5--------5--|
|-------------0-----------------|-------------3--------3--|
|-0-0-0-0-0-0-----/8-7-5-7--8s5-|-3-3-3-3-3-0-5--------3--|
|-0-0-0-0-0-0-------------------|-3-3-3-3-3-0------3-3-3--|


  D5             N.C.             C5/F
                                 3/4
  S S S S S S E.   S S S S  S E    S  S  S  E  S  S  E  S  S  S
|-------------------------------|-------------------------------|
|-------------3-----------------|-------------------------------|
|-------------2--/10-9-7-9-10s7-|-12-12-12-12-12-12-12-14-14-14-|
|-------------0-----------------|-10-10-10-10-10-10-10----------|
|-0-0-0-0-0-0-----/8-7-5-7--8s5-|--8--8--8--8--8--8--8-12-12-12-|
|-0-0-0-0-0-0-------------------|-------------------------------|


  C5/F                 N.C.      G5  F5
 4/4
   S  S  S  E  S  S  E  S  S  S  S S S S
|----------------------------------------|
|----------------------------------------|
|-12-12-12-12-12-12-12-14-14-14\---------|
|-10-10-10-10-10-10-10-------------------|
|--8--8--8--8--8--8--8-12-12-12\-5-5-3-3-|
|--------------------------------5-5-3-3-|


 Outro
  Gtr I
  S S E E E E E E E   S S E E E E E E E
|-------------------|-------------------|
|-------------------|-------------------|
|-------------------|-------------------|
|-------------------|-------------------|
|-3h5-5-5-5-5-5-5-5-|-3h5-5-5-5-5-5-5-5-|
|-----0-0-0-0-0-0-0-|-----0-0-0-0-0-0-0-|


  N.C.
  S S E E E E E E E   S S E E E E E E E   S S E E E E E E E
|-------------------|-------------------|-------------------|
|-------------------|-------------------|-------------------|
|-------------------|-------------------|-------------------|
|-------------------|-------------------|-------------------|
|-3h5-5-5-5-5-5-5-5-|-3h5-5-5-5-5-5-5-5-|-3h5-5-5-5-5-5-5-5-|
|-----0-0-0-0-0-0-0-|-----0-0-0-0-0-0-0-|-----0-0-0-0-0-0-0-|


  H.=H
  N.C.                             D5
  S S S S  S S  E  S S S S S S E   W
|--------------------------------|------*|
|--------------------------------|------*|
|-----7---10---10\-----5-------7-|------*|
|-------8----8-----------3-------|-0----*|
|---8----------------3-------5---|-0----*|
|-8----------------3-------5-----|-0----*|


This Song Is Mad and so is Mudvayne spred the word about them .
            
Submit corrections

↑ Back to top | Tablatures and chords for acoustic guitar and electric guitar, ukulele, drums are parodies/interpretations of the original songs. You may use it for private study, scholarship, research or language learning purposes only