» » »

Mudvayne - Everything And Nothing Tabs

Artists:  A B C D E F G H I J K L M N O P Q R S T U V W X Y Z # 

Everything And Nothing Tabs

(ver. 3) Click to play this song!
Mudvayne
 Rating:
4/5 (4 votes)
                Mudvayne
Everything And Nothing
100% correct


-------------------------

--555-5-55-5557----------

-------------------------

-------------------------

-------------------------

-------------------------



-------------------------

-------------------------

-55-7-55-10--------------

-55-7-55-10--------------

-33-5-33-8---------------

-------------------------



-------------------------

--555-5-55-5557----------

-------------------------

-------------------------

-------------------------

-------------------------



-------------------------

-------------------------

-55-7-55-10--------------

-55-7-55-10--------------

-33-5-33-8---------------

-------------------------



-------------------------

-------------------------

-------------------------

-3333-3333333------------

-3333-3333333------------

-1111-1111111------------



-------------------------

-------------------------

-55-7-55-10--------------

-55-7-55-10--------------

-33-5-33-8---------------

-------------------------



-------------------------

-------------------------

-------------------------

-3333-3333333------------

-3333-3333333------------

-1111-1111111------------



-------------------------

-------------------------

55--1010-77--99----------

55--1010-77--99----------

33--8-8--55--77----------

-------------------------



-------------------------

-------------------------

-------------------------

-3333-3333333------------

-3333-3333333------------

-1111-1111111------------

Enjoy!!!!!!!!!!!!!!!!!!!!!!!!!!!!!!!!!!!!!!!!!!!!!!!!!!
            
Submit corrections

↑ Back to top | Tablatures and chords for acoustic guitar and electric guitar, ukulele, drums are parodies/interpretations of the original songs. You may use it for private study, scholarship, research or language learning purposes only