Home » M » Mraz Jason »

Mraz Jason - On Love In Sadness Tabs

Artists:  A B C D E F G H I J K L M N O P Q R S T U V W X Y Z # 

On Love In Sadness Tabs

(ver. 1) Click to play this song!
Mraz Jason
Intro
Capo 2st fret
All notations relative to the capo!



Part 1:
E ----------------------------------------------------------------------------------------|
B ----------------------------------------------------------------------------------------|
G ---0---0----0---0----0---0----0---------0----0------0----0--------0----0------0----0----|
D ---9---7----9---7----9---7----9---------9----7------9----7--------9----7------9----7----|
A ---7---5----7---5----7---5----7--------10---10-----10---10-------10---10-----10---10----|
E -0-0---0--0-0---0--0-0---0--0-0------8--8----8---8--8----8----8---8----8---8--8----8----|


Part 2:
 Love is a brittle madness…   
E --3----5----2----3-------------------------|
B --3----5----3----5-------------------------|
G --4----5----4----5-------------------------|
D --5----7----4----5-------------------------|
A --5----7----2----3-------------------------|
E --3----5----2----3-------------------------|


Part 3:
Lay awake and lust…
E --3----5----5--------|
B --3----7----5--------|
G --4----7----5--------|
D --5----7----7--------|
A --5----5----7--------|
E --3----5----5--------|


Part 4:
You see well I’m feeling lucky…
E --1----3----1--------|
B --1----5----3--------|
G --2----5----3--------|
D --3----5----3--------|
A --3----3----1--------|
E --1----3----1--------|


We are thick as thieves, ba ba ba…
E --1----2----3--------|
B --1----2----3--------|
G --1----2----4--------|
D --3----4----5--------|
A --3----4----5--------|
E --1----2----3--------|
            
Submit corrections

↑ Back to top | Tablatures and chords for acoustic guitar and electric guitar, ukulele, drums are parodies/interpretations of the original songs. You may use it for private study, scholarship, research or language learning purposes only