Home » M » Mraz Jason »

Mraz Jason - Sleeping To Dream Tabs

Artists:  A B C D E F G H I J K L M N O P Q R S T U V W X Y Z # 

Sleeping To Dream Tabs

(ver. 1) Click to play this song!
Mraz Jason

Tuning            : Standard

[Intro/Verse]
e|------3-----------------7-----8--7-----|
B|------3-----3-----------8-----8--8-----|
G|------0-------0---------5----5---------|
D|------0------------5-5--5--5-----------|
A|------2--------------------------------|
E|-3-3--3--3-----------------------------|
Intro: JUst listen, it's really easy

[Pre-Chorus]
e|-0---|---3---|--------|
B|-1---|---5---|--------|
G|-2---|---5---|--------|
D|-2---|---5---|--------|
A|-0---|---3---|--------|
E|-----|---3---|--------|
"As I lay me down...." and   "As I lay me back..."  strum

[Chorus]
e|-3--5---3--5---3--5---3--5----7--8---7--8---7--8---7--8----|
B|-3--3---3--3---3--3---3--3----8--8---8--8---8--8---8--8----|
G|-0--0---0--0---0--0---0--0----5--5---5--5---5--5---5--5----|
D|-0--0---0--0---0--0---0--0----5--5---5--5---5--5---5--5----|
A|-----------------------------------------------------------|
E|-----------------------------------------------------------|
Strum intro/verse or this...

[]
e|--0-----------------3-----------|
B|--1-----------------3-----------|
G|--2-----------------0-----------|
D|--2-----------------0-----------|
A|--0-----------------2-----------|
E|--------------------3-----------|
"..tired.."

[Bridge]
e|-----------------------------------------------------------|
B|-------1-------1-------1---------1-------------------------|
G|-------0-------0-------2---------2-------------------------|
D|-------2-------0-------2---------2-------------------------|
A|--3--3----2--2----0--0-----0--0-0--------------------------|
E|-----------------------------------------------------------|
"Just a little lullaby.."


 Tab created with Kastor's Guitar Tabulature Manager 3.0 (TabIt Quick 1.0)
            
Submit corrections

↑ Back to top | Tablatures and chords for acoustic guitar and electric guitar, ukulele, drums are parodies/interpretations of the original songs. You may use it for private study, scholarship, research or language learning purposes only