Home » M » Motley Crue »

Motley Crue - Helter Skelter Tabs

Artists:  A B C D E F G H I J K L M N O P Q R S T U V W X Y Z # 

Helter Skelter Tabs

(ver. 2) Click to play this song!
Motley Crue
this is how i learned to play it i think it is correct

intro:

-----------------------------
-----------------------------
-777777777777777777777777----
-999999998888888877777777----
-----------------------------
-----------------------------

verses:

------------------------------
------------------------------
------------------------------
-4444444-7-4444444-7-4444444-7
-4444444-7-4444444-7-4444444-7
-2222222-5-2222222-5-2222222-5

pre-chorus:

------------------------------
------------------------------
------------------------------
------------------------------
-7799779977997799-4-44444444--
-5555555555555555-2-22222222--

Chorus:

---------------------------------------
------2-1------------------------------
-4444-----4-2-1----------2-1-----------
-4444-----------4-2-4444-----4-2-1-----
-2222---------------4444-----------4-2-
--------------------2222---------------

thats all folks

take it easy
            
Submit corrections

↑ Back to top | Tablatures and chords for acoustic guitar and electric guitar, ukulele, drums are parodies/interpretations of the original songs. You may use it for private study, scholarship, research or language learning purposes only