Home » M » Motley Crue »

Motley Crue - Dr Feel Good Tabs

Artists:  A B C D E F G H I J K L M N O P Q R S T U V W X Y Z # 

Dr Feel Good Tabs

(ver. 1) Click to play this song!
Motley Crue
dr.feelgood
motley crue

drop D tuning- DGCFAD

h- hammer on
p- pull off
(#)- ghost note
/- slide up
\- slide down
\/- arm down
^- arm up
~- let ring
x- palm mute
PM- palm mute
ph- pinch harmonic
h- harmonic

i know theres structure errors but youve got common sense, so make the best
of what you got. and ive given you a shi t load. so have at it.

--F*CKIN ENJOY--

intro
                                               with reverb and arm bent down
d------------------------------------------------------------------------
g------------------------------------------------------------------------
c----------------------------------------------0-0-0-0-0--0-0-0--0-0-0-0-
f------------------------------------------------------------------------
a------------------------------------------------------------------------
d--0-0-0-0--0-0--0-0--0-0-0-0-0-0--0-0--0-0-0----------------------------

  harmonic with arm
d------------------------------------------------------------
g------------------------------------------------------------
c--/7-7-7-7-7-7-7-7--5-\/-\/-\/-\/-\/-\/-\/--7-7-7-7-7-7-7-7-
f--------------------5-\/-\/-\/-\/-\/-\/-\/------------------
a------------------------------------------------------------
d------------------------------------------------------------

d--------------------------------------------------------------------------
g--------------------------------------------------------------------------
c--12-\/-\/-\/-\/-\/-\/-\/--7-\/-\/-\/-\/-\/-\/-\/--5-\/-\/-\/-\/-\/-\/-\/-
f--12-\/-\/-\/-\/-\/-\/-\/--7-\/-\/-\/-\/-\/-\/-\/--5-\/-\/-\/-\/-\/-\/-\/-
a--------------------------------------------------------------------------
d--------------------------------------------------------------------------

d------------------------------------------22-22-22------------
g--------------------------------------------------------------
c--7-\/-\/-\/-\/-\/-\/-\/--12-\/-\/-\/-\/----------------------
f--7-\/-\/-\/-\/-\/-\/-\/--12-\/-\/-\/-\/----------------------
a-----------------------------------------------------/--------
d----------------------------------------------------------/---

   PM------------|
d---------------------------
g-------------------3--2~---
c-------------------2--2~---
f---------------------------
a--------------0-0----------
d--0-0-2-2-3-3------------0-

   PM------------|
d---------------------------
g-------------------8--8~---
c-------------------7--7~---
f---------------------------
a--------------0-0----------
d--0-0-2-2-3-3------------0-

   PM------------|
d---------------------------
g-------------------3--2~---
c-------------------2--2~---
f---------------------------
a--------------0-0----------
d--0-0-2-2-3-3------------0-

   PM------------|
d--------------------------
g-------------------8--(8)-
c-------------------7--(7)-
f--------------------------
a--------------0-0---------
d--0-0-2-2-3-3-------------

verse
d-------------------------
g-------------------------
c--2-----2-2----2---------
f--2-----2-2----2-----2---
a--0-----0-0----0-----2---
d-----3------------3--0---

d------------------------------------
g-------------------------12(12)-10~-
c--2-----2-2----2--------------------
f--2-----2-2----2-----2--------------
a--0-----0-0----0-----2--------------
d-----3------------3--0--------------
                                                                        PM------|
d---------------------------------------------------------------------------------
g---------------------------------------------------------------------------------
c--2-----2-2-----------2-----------------2-----2-2-------2-----2------------------
f--2-----2-2-----------2-----2-----------2-----2-2-------2-----2-----2------------
a--0-----0-0--0-0-0-0--0-----2-----------0-----0-0--0-0--0--0--0-----2------------
d-----3-------------------3--0--0-0-0-0-----3---------------------3--0--0-0-0-0-0-

chorus
   PM------------|
d---------------------------
g-------------------3--2~---
c-------------------2--2~---
f---------------------------
a--------------0-0----------
d--0-0-2-2-3-3------------0-

   PM------------|
d---------------------------
g-------------------8--8~---
c-------------------7--7~---
f---------------------------
a--------------0-0----------
d--0-0-2-2-3-3------------0-

   PM------------|
d---------------------------
g-------------------3--2~---
c-------------------2--2~---
f---------------------------
a--------------0-0----------
d--0-0-2-2-3-3------------0-

   PM------------|
d--------------------------
g-------------------8--(8)-
c-------------------7--(7)-
f--------------------------
a--------------0-0---------
d--0-0-2-2-3-3-------------

                    PM----------|
d-----------------------------------
g---------2~~----5----------------3-
c--2~~----2~~----4----------------0-
f--2~~----2~~----2----------------0-
a--0~~----0~~---------------------x-
d-------------------0-0-0-0-0-0-0-3-

d--------------------
g---------2~~--------
c--2~~----2~~----4~~-
f--2~~----2~~----4~~-
a--0~~----0~~----2~~-
d--------------------

d-------------------------12-------------------------------------------------------
g-----15-15-(15)--15~-(15)---15-14-12----------------------------------------------
c-------------------------------------15-12h14-12h14p12----------------------------
f-------------------------------------------------------14-12h14p12----------------
a-x-x---------------------------------------------------------------12-12\10-------
d----------------------------------------------------------------------------12p10-

      ph          ph        ph   ph    ph   ph  ph   ph   ph
d--------------15-15-(15)-------------------------------------------------
g--------------------------u-d--u-d---u-d--u-d--u-d--u-d-u--d-------------
c--------------------------2-2--2-2---2-2--2-2--2-2--2-2-2--2--0--0--0-\/-
f-------------------------------------------------------------------------
a--12-12-(12)-------------------------------------------------------------
d-------------------------------------------------------------------------

verse
d-------------------------
g-------------------------
c--2-----2-2----2---------
f--2-----2-2----2-----2---
a--0-----0-0----0-----2---
d-----3------------3--0---

d------------------------------------
g-------------------------12(12)-10~-
c--2-----2-2----2--------------------
f--2-----2-2----2-----2--------------
a--0-----0-0----0-----2--------------
d-----3------------3--0--------------
                                                                        PM------|
d---------------------------------------------------------------------------------
g---------------------------------------------------------------------------------
c--2-----2-2-----------2-----------------2-----2-2-------2-----2------------------
f--2-----2-2-----------2-----2-----------2-----2-2-------2-----2-----2------------
a--0-----0-0--0-0-0-0--0-----2-----------0-----0-0--0-0--0--0--0-----2------------
d-----3-------------------3--0--0-0-0-0-----3---------------------3--0--0-0-0-0-0-

chorus
   PM------------|
d---------------------------
g-------------------3--2~---
c-------------------2--2~---
f---------------------------
a--------------0-0----------
d--0-0-2-2-3-3------------0-

   PM------------|
d---------------------------
g-------------------8--8~---
c-------------------7--7~---
f---------------------------
a--------------0-0----------
d--0-0-2-2-3-3------------0-

   PM------------|
d---------------------------
g-------------------3--2~---
c-------------------2--2~---
f---------------------------
a--------------0-0----------
d--0-0-2-2-3-3------------0-

   PM------------|
d--------------------------
g-------------------8--(8)-
c-------------------7--(7)-
f--------------------------
a--------------0-0---------
d--0-0-2-2-3-3-------------

                    PM----------|
d-----------------------------------
g---------2~~----5----------------3-
c--2~~----2~~----4----------------0-
f--2~~----2~~----2----------------0-
a--0~~----0~~---------------------x-
d-------------------0-0-0-0-0-0-0-3-

d--------------------
g---------2~~--------
c--2~~----2~~----4~~-
f--2~~----2~~----4~~-
a--0~~----0~~----2~~-
d--------------------

get reverb going and use arm with feeling
d---------------------------
g---------------------------
c---------------------------
f---------------------------
a---------------------------
d--0-0-0-0-0-0--0-0--0-0-0--

d------------------------------------------------------------------------
g------------------------------------------------------------------------
c-----7-7-7-7-7--7-7--7-7-5-\/-\/-\/-\/-\/-\/-\/--7-\/-\/-\/-\/-\/-\/-\/-
f-------------------------5-\/-\/-\/-\/-\/-\/-\/--7-\/-\/-\/-\/-\/-\/-\/-
a--x---------------------------------------------------------------------
d------------------------------------------------------------------------

solo                           "guitar!"
d---------------------------------------12-12-12----12-12-12-12-12-12-12-
g------------------12--12--15p12-15(15)----------15(15)------------------
c--12-\/-\/-\/-\/--12--12------------------------------------------------
f--12-\/-\/-\/-\/--------------------------------------------------------
a------------------------------------------------------------------------
d------------------------------------------------------------------------

                                                                ph-----------| 
d-----------12-14-15--x-0-x-x-0-x-0/15-(15)-(15)-3-3-(3)----------------------
g--12-14-15--------------------------------------------------u-u-u--u-u-u-u-u-
c--------------------------------------------------------2-2-2-2-2--2-2-2-2-2-
f-----------------------------------------------------------------------------
a-----------------------------------------------------------------------------
d-----------------------------------------------------------------------------

   ph----|
d----------------------------------------------------------------------------------6-
g--u-u-u-u-------------------------------------------------------------5-5-5-8-8-8---
c--2-2-2-2-2p0---0-----------------------------------------------6-6-6---------------
f--------------2---2p0h2p0h2p0----0-\/---0-0-0-2-2-2-5-5-5-7-7-7---------------------
a------------------------------------------------------------------------------------
d------------------------------------------------------------------------------------

played with right hand tapping and extremely f*cking fast, good luck
d----------------------------------------------------------------------------------
g--0h-7h-12p-0h-9h-12p-0h-7h-12p-0h-7h-12p-0h-7h-12p-0h-5h-12p-0h-7h-12p-0h-5h-12p-
c----------------------------------------------------------------------------------
f----------------------------------------------------------------------------------
a----------------------------------------------------------------------------------
d----------------------------------------------------------------------------------

d---------------------------------------------------------------------------------
g--0h-4h-12p-0h-5h-12p-0h-4h-12p-0h-2h-12p-0h-4h-12p-0h-2h-12p-0h-4h-12p-0h-4h-12-
c---------------------------------------------------------------------------------
f---------------------------------------------------------------------------------
a---------------------------------------------------------------------------------
d---------------------------------------------------------------------------------
   
    h                          "come play with dr feelgood"
d-----------------------------------------------------------------
g--5~~-------------------(5)-\/-----------------------------(5)^--
c-----------------------------------------------------------------
f-----------------------------------------------------------------
a-----------------------------------------------------------------
d-----------------------------------------------------------------

      slide bar                        with arm bent down
d--x------------x-------------10-------10---10-----10------10----10----10~-
g---------------------------12---12-------12----12-----12-----12----12-----
c--------------------------------------------------------------------------
f--------------------------------------------------------------------------
a--------------------------------------------------------------------------
d--------------------------------------------------------------------------

chorus                  PM--------------|
d---------------------------------------------
g--3-(3)----2-(2)-------------------------3-2-
c--0-(0)----2-(2)-------------------------2-2-
f--0-(0)----2-(2)----2------------------------
a--x-(x)----0-(0)----2----------------0-0-----
d--3-(3)-------------0--0-0-0-2-2-3-3---------

                        PM--------------|
d---------------------------------------------
g--3-(3)----2-(2)-------------------------3-2-
c--0-(0)----2-(2)-------------------------2-2-
f--0-(0)----2-(2)----2------------------------
a--x-(x)----0-(0)----2----------------0-0-----
d--3-(3)-------------0--0-0-0-2-2-3-3---------

                        PM--------------|
d---------------------------------------------
g--3-(3)----2-(2)-------------------------3-2-
c--0-(0)----2-(2)-------------------------2-2-
f--0-(0)----2-(2)----2------------------------
a--x-(x)----0-(0)----2----------------0-0-----
d--3-(3)-------------0--0-0-0-2-2-3-3---------

                        PM--------------|
d---------------------------------------------
g--3-(3)----2-(2)-------------------------3-2-
c--0-(0)----2-(2)-------------------------2-2-
f--0-(0)----2-(2)----2------------------------
a--x-(x)----0-(0)----2----------------0-0-----
d--3-(3)-------------0--0-0-0-2-2-3-3---------

d------------------------
g--3-(3)----2-(2)--------
c--0-(0)----2-(2)----4~~-
f--0-(0)----2-(2)----4~~-
a--x-(x)----0-(0)----2~~-
d--3-(3)-----------------

outro- x how many ever, gtr 2 does the usual chorus out
d--------------------------------
g--/15---------------------------
c--/14----12-x-12-----12-x-12----
f------14-12------14--12---12-14-
a------14---------14----------14-
d--------------------------------
            
Submit corrections

↑ Back to top | Tablatures and chords for acoustic guitar and electric guitar, ukulele, drums are parodies/interpretations of the original songs. You may use it for private study, scholarship, research or language learning purposes only