Home » M » Mother Mother »

Mother Mother - Wrecking Ball Tabs

Artists:  A B C D E F G H I J K L M N O P Q R S T U V W X Y Z # 

Wrecking Ball Tabs

(ver. 2) Click to play this song!
Mother Mother
(Intro)
Band - Mother Mother
Song - Wrecking Ball


E||------------------------|------------------------|-------------------------|
G||------------------------|------------------------|-------------------------|
D||------------------------|----------------------9-|-------------------------|
B||-12-14-16-14-12-11-12-9-|-12-14-16-14-12-11-12---|-------------------------|
A||------------------------|------------------------|-------------------------|
E||------------------------|------------------------|-------------------------|

---------------------------|-------------------------|--------------------------|
---------------------------|-------------------------|--------------------------|
---------------------------|----------------------12-|--------------------------|
----12-14-16-14-12-11-12-9-|-12-14-16-19-12-14-16----|--------------------------|
---------------------------|-------------------------|--------------------------|
---------------------------|-------------------------|--------------------------|
            
Submit corrections

↑ Back to top | Tablatures and chords for acoustic guitar and electric guitar, ukulele, drums are parodies/interpretations of the original songs. You may use it for private study, scholarship, research or language learning purposes only