» » »

Mother Mother - Infinitesimal Bass

Artists:  A B C D E F G H I J K L M N O P Q R S T U V W X Y Z # 

Infinitesimal Bass

(ver. 1) Click to play this song!
Mother Mother
 Rating:
4/5 (4 votes)

 Infinitesimal lessons Tabs too difficult? Try these video lessons and learn fast
 
                -------------------------------------------------------------------------------
                             Infinitesimal - Mother Mother
-------------------------------------------------------------------------------

Figured it out by ear so might not be 100% but it's pretty close

Tuning: EADG
                Verse
G|---------------------------------------------------------------------------|
D|---------------------------------------------------------------------------|
A|----------------2-44444444--------------------------2-44444444-/99999988---|
E|00000000-2222224-----------22222222-00000000-2222224-----------------------|
                Chorus 
G|---------------------------------------------------------------------------|
D|---------------------------------------------------------------------------|
A|---------33333333-44444444-------------------33333333-44444444-------------|
E|00000000-------------------22222221-00000000-------------------22222222----|
               After Chorus During Guitar Riff
G|---------------------------------------------------------------------------|
D|---------------------------------------------------------------------------|
A|---------3333------44444444------------------------------------------------|
E|00000000------4444----------2222-3333--------------------------------------|
               Verse 2 listen for timing
G|---------------------------------------------------------------------------|
D|---------------------------------------------------------------------------|
A|-----------------2-44444444---------------------------2-44444444-999999x8--|
E|00000x00-2222224------------22222222-xx0000xx-xx222224---------------------|
                Bridge x3 (3rd time listen for timing)
G|---------------------------------------------------------------------------|
D|---------------------------------------------------------------------------|
A|7-----7------9-----9----------------------9----9---------------------------|
E|-7-9----7-9---7-9----7-9---9-9-7-9-9-7-9---7-9--7-9------------------------|
                Outro
G|---------------------------------------------------------------------------|
D|---------------------------------------------------------------------------|
A|---------3333------44444444-------------------3333------44444444-----------|
E|00000000------4444----------22221111-00000000------4444----------22221111--|

G|---------------------------------------------------------------------------|
D|---------------------------------------------------------------------------|
A|----------3333------44444444-----------------------------------------------|
E|-00000000------4444----------2222-3333-------------------------------------|

Order
Verse 1
Chorus
Guitar Riff
Verse 2
Chorus
Bridge
Verse 3
Chorus
Outro
| /  slide up
| \  slide down
| h  hammer-on
| p  pull-off
| ~  vibrato
| +  harmonic
| x  Mute note
===============================================================================
            
Submit corrections


        Infinitesimal lessons Hard to play? Try these video lessons and learn fast Infinitesimal lessons
        
↑ Back to top | Tablatures and chords for acoustic guitar and electric guitar, ukulele, drums are parodies/interpretations of the original songs. You may use it for private study, scholarship, research or language learning purposes only