Home » M » Mother Love Bone »

Mother Love Bone - Stargazer Tabs

Artists:  A B C D E F G H I J K L M N O P Q R S T U V W X Y Z # 

Stargazer Tabs

(ver. 2) Click to play this song!
Mother Love Bone
"STARGAZER"

                         Written by Andrew Wood
                          and Mother Love Bone



Intro
Rhy. Fig. A
 N.C.          G                                 C
e+-(5)h6-5-------------6-----5-------(5)h6-5-------------8-----8--------|
B+---------6p5-3-----------3-----------------6p5-5----------------------|
G+----------------------------------------------------------------------|
D+----------------------------------------------------------------------|
A+----------------------------------------------------------------------|
E+----------------------------------------------------------------------|


                                                        (End Rhy. Fig. A)
               G                                 C       Em
|--(5)h6-5-------------6-----5-------(5)h6-5----------------------------|
|----------6p5-3-----------3-----------------6p5-5------(5)-------------|
|-----------------------------------------------------------------------|
|-----------------------------------------------------------------------|
|-----------------------------------------------------------------------|
|-----------------------------------------------------------------------|


w/Rhy. Fig. A (4 times)

Verse 1:
G            C
Crazy crazy, I'm the boy
G              C  Em
who defies all
G              C
Lift me higher than anyone
G                C  Em
and hold my arms

Verse 2:
Woman woman, she outta mind
and simply out of soul
She gets me higher  (w/Fill 1)
 than anyone
and I miss her so


Prechorus
  G5
|-2/3-3-3---3-3-3-3/5-5-5---5-5-5-5/6-6-5---3---3-----------------------|
|-2/3-3-3---3-3-3-3/5-5-5---5-5-5-5/6-6-5---3---3-----------------------|
|-0---0-0---------0---0-0---------0---0-----0---0-----------------------|
|-----------------------------------------------0-----------------------|
|-----------------------------------------------------------------------|
|-----------------------------------------------3-----------------------|
                                                 1. I miss her so...
                                                 2. Why she done it to me


|-2/3-3-3---3-3-3-3/5-5-5---5-5-5-5/6-6-5---3---3-----------------------|
|-2/3-3-3---3-3-3-3/5-5-5---5-5-5-5/6-6-5---3---3-----------------------|
|-0---0-0---------0---0-0---------0---0-----0---0-----------------------|
|-----------------------------------------------0-----------------------|
|-----------------------------------------------------------------------|
|-----------------------------------------------3-----------------------|
 1.
 2.                Why she done it to me...       so I'm singin'


CHORUS:
F
Stargazer, you call the shots
G
and I take 'um
F
Stargazer, won't ya kick with me
G
please
  
Stargazer you call the shots
and I take 'um
Stargazer, won't ya kick with me
Oh baby, please


w/Rhy. Fig. A (3 times)
(ad lib over 1st rep.)

Verse 3:
Dancer dancer, I'm all wrong
she thinks she's young and wise
She dance around my  (w/Fill 2)
 my pretty little cable car
And fix me up with a guy--why?  C'mon

(Prechorus)
(Chorus)

G
Tell you what..

Bridge:
Am
Stargazer you cry in blue
C
Anything I've ever seen
G                     D         Dsus4  D  Dsus2  D
It ain't as good as you, child
Am                             C
I'm not trying to push your feelings
                 G
But I know you hold me
                     Am
Like putty in your hands

Outro (play twice):
F                        G
Cry for me and rub it in
                                         Am
Cry for the savior and the prophet's son
F                         G
Dream of me and Julie Ann
                        Am
Oh Xana come back again

-------------------------


Fill 1                              Fill 2
   C                                   C
|--------8-------10-------12--|     |--------8-------10-----8--|
|-----------------------------|     |--------------------------|
|--8/-9-----9/10----10/12-----|     |--8/-9-----9/10----\9-----|
|-----------------------------|     |--------------------------|
|-----------------------------|     |--------------------------|
|-----------------------------|     |--------------------------|


Chords used:

   Am    C     D   Dsus2 Dsus4   Em    F     G     G5
|--0-----0-----2-----0-----3-----0-----1-----3-----3--|
|--1-----1-----3-----3-----3-----0-----1-----3-----3--|
|--2-----0-----2-----2-----2-----0-----2-----0-----0--|
|--2-----2-----0-----0-----0-----2-----3-----0-----0--|
|--0-----3-----------------------2-----3-----2--------|
|--------------------------------0-----1-----3-----3--|


The song ends with a lot of putzing over the Am chord.  Not even
transcribable.  This has been my first attempt at transcribing a song
for guitar, so don't be angry if I didn't catch every last nuance
(after all, if you're copying every last nuance, what good are you
anyway? <grin>). 

If anyone actually read this, saved it, and found it useful PLEASE
joy to an old man's heart! =)


--
           Whether you spit or swallow, Phlegm is outta here!!!
"Sex, drugs, and rock n' roll -- take out the drugs and you've got
more time for the other two."     -- Steven Tyler
            
Submit corrections

↑ Back to top | Tablatures and chords for acoustic guitar and electric guitar, ukulele, drums are parodies/interpretations of the original songs. You may use it for private study, scholarship, research or language learning purposes only