Home » M » Mother Love Bone »

Mother Love Bone - Chloe Dancer Crown Of Thorns Tabs

Artists:  A B C D E F G H I J K L M N O P Q R S T U V W X Y Z # 

Chloe Dancer Crown Of Thorns Tabs

(ver. 1) Click to play this song!
Mother Love Bone
 Rating:
4/5 (4 votes)
                This is originally played on a piano and I think it sounds best tuned down a half step when I play it on my acoustic. (Eb Ab Db Gb Bb eb)

eb|---------0-------|-------0-----0---|---------0-------|---------0-------|
Bb|-----3-----3---3-|-----3---------3-|-----3-----3---3-|-----3-----3---3-|
Gb|---2---2-----2---|---2-------2-----|---0---0-----0---|---0---0-----0---|
Db|-----------------|---------0-------|-----------------|-----------------|
Ab|-0---------------|-2---------------|-----------------|-----------------|
Eb|-----------------|-----------------|-3---------------|-3---------------|

eb|---------0-------|-------0-----0---|---------0-------|---------0-------|
Bb|-----3-----3---3-|-----3---------3-|-----3-----3---3-|-----3-----3---3-|
Gb|---2---2-----2---|---2-------2-----|---0---0-----0---|---0---0-----0---|
Db|-----------------|---------0-------|-----------------|-----------------|
Ab|-0---------------|-2---------------|-----------------|-----------------|
Eb|-----------------|-----------------|-3---------------|-3---------------|

Just repeat that through the whole song.  Don’t know the chords, post ‘em if you do and I’d appreciate it.
Later,
-Mary

Here's the lyrics to Chloe Dancer:
Chloe don't know better
Chloe's just like me, only beautiful
A couple of years difference
But those lessons never learned
And ya know
Chloe danced the tables in the French Quarter
She's always been given, so I can't always make her laugh
But I'm proud to say
And I won't forget
The time spent layin' by her side
Ooh yeah yeah yeah
The time spent layin' by her side
Ooh yeah yeah yeah
Dreams like this must die
And a dream like this must die
Dream like this must...
(Continues on to Crown of Thorns)

Here's the lyrics to Crown of Thorns:
You ever heard the story of Mr. Faded Glory?
Say he who rides a pony must someday fall
Talkin' to my alter
Life is what you make it
And if you make it death well rest your soul away
Away, away, yeah, yeah child

It's a broken kind of feeling
She'd have to tie me to the ceiling
A bad moon's a comin' better say your prayers, child
I wanna tell you that I love you
But does it really matter?
I just can't stand to see you draggin' down again
Again, my baby again, oh yeah

So I'm singin'
This is my kind of love
It's the kind that moves on
Its the kind that leaves me alone
Yes it does
And this is my kind of love
It's the kind that moves on
It's the kind that leaves me alone

I used to treat you like a lady
Now you're my substitute teacher
This bottle's not a pretty, not a pretty sight
I owe the man some money
So I'm turnin' over honey
See Mr. Faded Glory is once again doin' time

And this is my kind of love
It's the kind that moves on
It's the kind that leaves me alone
Yes it does
And this is my kind of love
It's the kind that moves on
It's the kind that, it's the kind that, it leaves me alone
Like a crown of thorns
It's all who you know, yeah
So don't burn your bridges, woman
Cuz someday...
            
Submit corrections

↑ Back to top | Tablatures and chords for acoustic guitar and electric guitar, ukulele, drums are parodies/interpretations of the original songs. You may use it for private study, scholarship, research or language learning purposes only