» » »

Mother Love Bone - Come Bite The Apple Tabs

Artists:  A B C D E F G H I J K L M N O P Q R S T U V W X Y Z # 

Come Bite The Apple Tabs

(ver. 2) Click to play this song!
Mother Love Bone
 Rating:
4/5 (4 votes)

 Come Bite The Apple lessons Tabs too difficult? Try these video lessons and learn fast
 
                (Intro)
One, of many, Stone Gossards classic riffs..


h= hold
s= slide
b= bend

Intro:

|------------------------------------------------------
|------------------------------------------------------
|------------------------------------------------------
|------------------9-10-9----------9-10--10s12--10-9---
|--7h9--7h9--9s12-----------10s12----------------------
|------------------------------------------------------

|------------------------------------------------------
|------------------------------------------------------
|---------9-10-9---------9-10-9--------9-10--10s12-----
|--10-12----------10s12----------10s12-----------------
|------------------------------------------------------
|------------------------------------------------------

|------------------------------------------------------
|-------------13-------------13------------------------
|--10-9--9s14-----12b-12---14----12~-------------------
|------------------------------------------------------
|------------------------------------------------------
|------------------------------------------------------


Questions or comments.. Email me

P  e  a  r  l    J  a   m
            
Submit corrections


        Come Bite The Apple lessons Hard to play? Try these video lessons and learn fast Come Bite The Apple lessons
        
↑ Back to top | Tablatures and chords for acoustic guitar and electric guitar, ukulele, drums are parodies/interpretations of the original songs. You may use it for private study, scholarship, research or language learning purposes only