Home » M » Mother Love Bone »

Mother Love Bone - Chloe Dancer Crown Of Thorns Bass

Artists:  A B C D E F G H I J K L M N O P Q R S T U V W X Y Z # 

Chloe Dancer Crown Of Thorns Bass

(ver. 1) Click to play this song!
Mother Love Bone
This song was originally done by Mother Love Bone but Pearl Jam covered it on the 2000 Christmas
Single.  I tabbed this song out from the Mother Love Bone version but it should be identical 
to the Pearl Jam version.  Jeff may add some variations but here is the basics.  If you find 

Standard Tuning (E-A-D-G)

Intro: Chloe Dancer (With Piano, but just substitute it with Bass)

G-----------------|
D-------0---------|
A-0--2------------|  repeat 16x
E----------3------|  

The song then goes into the "Crown of Thorns" Intro

G--------------|--------------|
D:--------7\---|-------5\----:|
A:---\5--------|---3---------:| repeat 4x
E--------------|--------------|

Verse  

G--------------|---------------|
D:--------7\---|-------5\------|  12x
A:---\5--------|---3-----------|
E--------------|----------(3)--|
                           * every other time play the note in brackets
                                      
Chorus                  
                        
G-----------------------|------------------------|
D------7----7--7p5h7p5--|------5-----5--5p4h5p4--|
A---5-------------------|---3--------------------| 3x  then
E--------5--------------|---------3--------------|

G-----------------------|------------------------|
D------7----7--7p5h7p5--|------5-----------------|
A---5-------------------|---3--------------------|
E--------5--------------|---------3--------------|

Play Verse

Play Chorus

Bridge

G-------------------|  |--------------------|
D-------------------|  |--------------------|
A-------------------|3x|--------------------|
E--5--8----8--7--3--|  |--5--8----8--7--10--|

Quite Part

G--------------|
D--------------|
A--------------|  *listen carefully to hear when jeff plays the E note w/ the bass drum
E--0-----------|  

..a little later on...

G--------------------|--------------------|--------------------|-----------|
D--------------------|-----7-----7-----7--|--------------------|-----------|
A-----2-----2-----2--|--5-----5-----5-----|-----2-----2-----2--|--5--4-----|
E--0-----0-----0-----|--------------------|--0-----0-----0-----|--------3--|

Play Chorus

Outro

G------------------------------------|
D------------------------------------|
A-----7/h10--10--7-7-----------------| Play until it fades
E--0------------------8-8-8-8--8-10--|
            
Submit corrections

↑ Back to top | Tablatures and chords for acoustic guitar and electric guitar, ukulele, drums are parodies/interpretations of the original songs. You may use it for private study, scholarship, research or language learning purposes only