» » »

Morrissey - Treat Me Like A Human Being Chords

Artists:  A B C D E F G H I J K L M N O P Q R S T U V W X Y Z # 

Treat Me Like A Human Being Chords

(ver. 1) Click to play this song!
Morrissey
 Rating:
4.3/5 (20 votes)

 Treat Me Like A Human Being lessons Tabs too difficult? Try these video lessons and learn fast
 
                [Intro]
e|-1-------0-------1-------0-------1-------0-------1-------0-------|
B|-3-------1-------3-------1-------3-------1-------3-------1-------|
G|-3--0-3--2-------3-0-3-2-0-------3--0-3--2-------3-0-3-2-0-------|
D|-3-------2-------3-------2-------3-------2-------3-------2-------|
A|-1-------3-------1-------3-------1-------3-------1-------3-------|
E|-----------------------------------------------------------------|
 Bb      C      Bb       C       Bb      C      Bb       C

[Verse]
Am    A
it's hard, but
Dm        E
try it's hard but
Am     C
try - for

F              F7
once, just for once just for
Bb          C
once leave all your hate be-
Am
hind you - it's
Gm       E
still so strange and ob-
Am
scene

F          F7
For you to look and
Bb             C
see one who is real - and who
Am
feels life
Gm                  E
Three words could change my
Am
life - so

F             F7
once, just for once, just for
Bb            C
once let the night pass with
Am
ease, son
Gm                E
Treat me like a human
Am
being

[Bridge]
F           F7
I'd like to know how this
Bb   C
feels
Bb   C
Bb   C
Bb   C

[Chorus]
D
Three words could change my
E
life - yet you
G
treat me like you never
D
care - although


D
three words could change my
E
life - you still
G
treat me like you never
D
care

[Outro]
Am
F
Bb C

e|-1-------0-------1-------0-------1-------0-------1-------0-------|
B|-3-------1-------3-------1-------3-------1-------3-------1-------|
G|-3--0-3--2-------3-0-3-2-0-------3--0-3--2-------3-0-3-2-0-------|
D|-3-------2-------3-------2-------3-------2-------3-------2-------|
A|-1-------3-------1-------3-------1-------3-------1-------3-------|
E|-----------------------------------------------------------------|

F            
Submit corrections


        Treat Me Like A Human Being lessons Hard to play? Try these video lessons and learn fast Treat Me Like A Human Being lessons
        
↑ Back to top | Tablatures and chords for acoustic guitar and electric guitar, ukulele, drums are parodies/interpretations of the original songs. You may use it for private study, scholarship, research or language learning purposes only