Home » M » Morphine »

Morphine - Cure For Pain Bass

Artists:  A B C D E F G H I J K L M N O P Q R S T U V W X Y Z # 

Cure For Pain Bass

(ver. 2) Click to play this song!
Morphine
 Rating:
4.3/5 (6 votes)
                Tuning : ADAE

Main riff, verses
A|-----0-----0---0-|-----9-----7---7-|
D|--0----0-----0---|--9----7-----7---|
A|-----------------|-----------------|
E|-----------------|-----------------|

End of the verses
A|------10-----10----10--|------10-----10----10--|------9-----9---9------|
D|--10-----10-----10-----|--10-----10-----10-----|--9-----9-----9--------|
A|-----------------------|-----------------------|-----------------------|
E|-----------------------|-----------------------|-----------------------|

End :

A|-0--------------|
D|-0--------------|
A|----------------|
E|----------------|



Normal Tuning :

G|------2-----2---2-|--4---4-2---2---2--|
D|--0-----0-----0---|----0---------0----|
A|------------------|-------------------|
E|------------------|-------------------|

G|-5--5-5----5-5-5--|-5--5-5----5-5-5---|-4--4-4----4-4-4--|
D|------------------|-------------------|------------------|
A|------------------|-------------------|------------------|
E|------------------|-------------------|------------------|            
Submit corrections

↑ Back to top | Tablatures and chords for acoustic guitar and electric guitar, ukulele, drums are parodies/interpretations of the original songs. You may use it for private study, scholarship, research or language learning purposes only