» » »

Morphine - Cure For Pain Bass

Artists:  A B C D E F G H I J K L M N O P Q R S T U V W X Y Z # 

Cure For Pain Bass

(ver. 1) Click to play this song!
Morphine
 Rating:
3/5 (6 votes)

 Cure For Pain lessons Tabs too difficult? Try these video lessons and learn fast
 
                for this song you need to tune your A string down so that its 7th fret matches your open 
string. Mark used a two string bass in this tuning.

--------------------------------|
-7-7-7--777--4-4-2--2-2-2-------|
-7-7-7--777--4-4-2--2-2-2-------|
--------------------------------|

-------------------------------|
---5--5----5-5-----4-----------|
-5---5-5-5--5-5-4---4-4-4------|
-------------------------------|
somedaay.....
            
Submit corrections


        Cure For Pain lessons Hard to play? Try these video lessons and learn fast Cure For Pain lessons
        
↑ Back to top | Tablatures and chords for acoustic guitar and electric guitar, ukulele, drums are parodies/interpretations of the original songs. You may use it for private study, scholarship, research or language learning purposes only