» » »

Morcheeba - Sao Paulo Tabs

Artists:  A B C D E F G H I J K L M N O P Q R S T U V W X Y Z # 

Sao Paulo Tabs

(ver. 1) Click to play this song!
Morcheeba
 Rating:
3.1/5 (24 votes)

 Sao Paulo  lessons Tabs too difficult? Try these video lessons and learn fast
 
                Intro and Verse
  EM7   CM7    BM7    EM7  CM7     BM7     EM7    CM7   BM7    A6   G6
e|--7-----3-----2------7------12----11-----7-------3----2---------------------------|
B|--9-----5-----4------9------12----11-----9-------5----4-----7----------5-3--------|
G|--8-----4-----3------8------12----11-----8-------4----3-----6--------4-----4------|
D|--9-----5-----4------9---10-------9------9-------5----4-----7------5--------------|
A|--7---3-------2------7-------------------7-----3------2---------------------------|
E|------------------------------------------------------------5----3----------------|

EM7            CM7  BM7
Waiting in the club lounge
EM7          CM7  BM7
I slot in so systematically
EM7                   CM7 BM7
I want to smash it to pieces
A6           G6
Release this hatred inside of me

EM7                       CM7  BM7
You know you fill me with passion
EM7            CM7  BM7
But I just act apologetically
EM7                   CM7  BM7
I'm gonna miss you in fashion
A6        G6
All ashen faced with my deceit


Chorus (listen to the song for the rhythm but these are the chords he plays live)

    B   C#m7  EM7  Em                           F#   GM7  A   Asus4 B5
e|------------4----3----------------------------------2---0-------------|
B|--4----5----4----5----------------------------2-----3---2---3---------|
G|--4----4----4----4----repeat x 4---then play--3-----4---2---2----4----|
D|--4----6----2---------------------------------4-----4-------2----4----|
A|--2----4--------------------------------------4---------0---0----2----|
E|----------------------------------------------2-----3-----------------|

It sounds like he plays the chorus like this with the hammer on
    B    C#m7     EM7  Em
e|------------------4--3-3----------------------------------------------|
B|----4--------5----4--5-5----------------------------------------------|
G|----4--------4----4--4-4----------------------------------------------|
D|----4----4h6----2-----------------------------------------------------|
A|--2----4--------------------------------------------------------------|
E|----------------------------------------------------------------------|


B
Sao Paulo
G        A
Why am I bringing me down?
B
Sao Paulo
G              A
If I drink any more I will drown
B
Sao Paulo
G           A
Why can't I fight truth decay?
B
Sao Paulo
G               A        F#
My life is just one big cliche

GM7  A   Asus4 B5


EM7                 CM7  BM7
Another stain on my passport
EM7                 CM7  BM7
I want to travel so futuristically
EM7                 CM7  BM7
I just wish I could beam up, 
A6           G6
team up, And soon be on my way

EM7                   CM7 BM7
You told me we'd go to Ri-o
EM7                CM7  BM7
And you said it so charismatically
EM7                       CM7  BM7
I know it's me that's the nightmare
A6               G6
So fight fair or have some decency


B   C#m7
Sao Paulo
EM7      Em
Why am I bringing me down?
B   C#m7
Sao Paulo
EM7            Em
If I drink any more I will drown
B   C#m7
Sao Paulo
EM7         Em
Why can't I fight truth decay?
B   C#m7
Sao Paulo
EM7             Em      F#
My life is just one big cliche

   GM7  A  Asus4 B5
e|---2---0---------------------|
B|---3---2---3-----------------|
G|---4---2---2----4------------|
D|---4-------2----4------------|
A|-------0---0----2------------|
E|---3-------------------------|

    GM7  A   A    B
e|---2-------5-----------------|
B|---3---5---5----7------------|
G|---4---6---6----8------------|
D|---4---7--------9------------|
A|-----------------------------|
E|---3---5---5----7------------|

BRIDGE 
EM7  C#min
EM7  C#min
EM7  C#min
EM7  F#


B   C#m7
Sao Paulo
EM7      Em
Why am I bringing me down?
B   C#m7
Sao Paulo
EM7            Em
If I drink any more I will drown
B   C#m7
Sao Paulo
EM7         Em
Why can't I fight truth decay?
B   C#m7
Sao Paulo
EM7             Em      F#
My life is just one big cliche


GM7            A   Asus4 B5
You sure put a spin on my day
GM7      A   A        B
Why am I heading your way
GM7           A  Asus4  B5
Everything is coming up grey
GM7        A   A  B
I'm just a humble DJ            
Submit corrections


        Sao Paulo  lessons Hard to play? Try these video lessons and learn fast Sao Paulo  lessons
        
↑ Back to top | Tablatures and chords for acoustic guitar and electric guitar, ukulele, drums are parodies/interpretations of the original songs. You may use it for private study, scholarship, research or language learning purposes only