» » »

Morcheeba - Blindfold Tabs

Artists:  A B C D E F G H I J K L M N O P Q R S T U V W X Y Z # 

Blindfold Tabs

(ver. 1) Click to play this song!
Morcheeba
 Rating:
4/5 (4 votes)

 Blindfold lessons Tabs too difficult? Try these video lessons and learn fast
 
                Morcheeba - Blindfold
Questo è il mio primo tab, this is my first tab;)

I can't say if all the Em's are G's... sorry:(
 
INTRO & VERSES: No guitar
anyway the chords are Am Em


PRECHORUS1:
gtr1:
Am Am Em Em
Am Am E  E


CHORUS1: 
gtr1:
Am C G D (x2)


PRECHORUS2:
gtr1:
Am Am Em Em
Am Am E E 

gtr2:
E-----8-5-------7-3-------8-5-
B-5-5-------3-3-------5-5-----

E E


CHORUS2:
gtr1:
Am C G D (x4)

gtr2:
Am C G D (x4)


SOLO:
gtr1:
Am C G D (x4)

gtr2:
E----------------------------------------------------------------------------- 
B----------------------------------------------------------------------------- 
G-----5-7b9r7-5-7---7-7-5h7-7b9r7-5---------5-7b9r7-5-7---7-7-5h7-7b9r7-5----- 
D-7-7-------------------------------7---7-7-------------------------------7--- 
A----------------------------------------------------------------------------- 
E----------------------------------------------------------------------------- 

E-----------------------8-10b12r10-8h10-10-8-10-8-10b12r10-8-10-8-10-8-10-8-10-10-
B---------------------------------------------------------------------------------
G-----5-7b9r7-5-7---7-7-----------------------------------------------------------
D-7-7-----------------------------------------------------------------------------
A---------------------------------------------------------------------------------
E---------------------------------------------------------------------------------

BRIDGE:
gtr2:
G-7p5- or D-10p7-


VERSE3:
gtr1:
Am (only 1 strum)


PRECHORUS3:
same as prechorus2


CHORUS3:
gtr1:
Am C G D (x12) Am

gtr2:
Am C G D (x12) Am
            
Submit corrections


        Blindfold lessons Hard to play? Try these video lessons and learn fast Blindfold lessons
        
↑ Back to top | Tablatures and chords for acoustic guitar and electric guitar, ukulele, drums are parodies/interpretations of the original songs. You may use it for private study, scholarship, research or language learning purposes only