» » »

Morcheeba - Over And Over Tabs

Artists:  A B C D E F G H I J K L M N O P Q R S T U V W X Y Z # 

Over And Over Tabs

(ver. 1) Click to play this song!
Morcheeba
 Rating:
4.4/5 (5 votes)

 Over And Over lessons Tabs too difficult? Try these video lessons and learn fast
 
                [intro]
e|------------0-----|-----------0-----|-----------0-----|-----------0------|
B|--------1-----1---|-------1-----1---|-------1-----1---|-------1-----1----|
G|------2---2-----2-|-----2---2-----2-|-----2---2-----2-|-----2---2-----2--|
D|--0h2-------------|-0h2-------------|-0h2-------------|-0h2--------------|
A|------------------|-----------------|-----------------|------------------|
E|------------------|-----------------|-----------------|------------------|

[couplet]
e|------------0-----|-----------0-----|-----------0-----|-----------0------|
B|--------1-----1---|-------1-----1---|-------1-----1---|-------1-----1----|
G|------2---2-----2-|-----2---2-----2-|-----2---2-----2-|-----2---2-----2--|
D|--0h2-------------|-0h2-------------|-0h2-------------|-0h2--------------|
A|------------------|-----------------|-----------------|------------------|
E|------------------|-----------------|-----------------|------------------|
   Waking to these      sounds again     I wonder how       I'll sleep

e|------------0-----|-----------0-----|-----------0-----|-----------0------|
B|--------1-----1---|-------1-----1---|-------1-----1---|-------1-----1----|
G|------2---2-----2-|-----2---2-----2-|-----2---2-----2-|-----2---2-----2--|
D|--0h2-------------|-0h2-------------|-0h2-------------|-0h2--------------|
A|------------------|-----------------|-----------------|------------------|
E|------------------|-----------------|-----------------|------------------|
     Passing out is    taking off into   the stubborn      deep

e|------------0-----|-----------0-----|-----------0-----|-----------0------|
B|--------1-----1---|-------1-----1---|-------0-----0---|-------0-----0----|
G|------2---2-----2-|-----0---0-----0-|-----0---0-----0-|-----0---0-----0--|
D|--0h2-------------|-0h2-------------|-0h2-------------|-0h2--------------|
A|------------------|-----------------|-----------------|------------------|
E|------------------|-----------------|-----------------|------------------|
   I'd like to meet a  human  who       makes it all seem clear
e|------------0-----|-----------0-----|-----------0-----|-----------0------|
B|--------1-----1---|-------1-----1---|-------0-----0---|-------0-----0----|
G|------2---2-----2-|-----0---0-----0-|-----0---0-----0-|-----0---0-----0--|
D|--0h2-------------|-0h2-------------|-0h2-------------|-0h2--------------|
A|------------------|-----------------|-----------------|------------------|
E|------------------|-----------------|-----------------|------------------|
  To work out all these cycles and       why I'm standing  here           I'm falling

e|------0--------0--|-----0--------0-|-----0-----0-|-----0-----0--|
B|------1--------1--|-----1--------1-|-----0-----0-|-----0-----0--|
G|----2--------2----|---0--------0---|---0-----0---|---0-----0----|
D|--2--------2------|-2--------2-----|-2-----2-----|-2-----2------|
A|------------------|----------------|-------------|--------------|
E|------------------|----------------|-------------|--------------|
    Over and over and over and over    again now            Calling 
e|------0--------0--|-----0--------0-|-----0-----0-|-----0-----0--|
B|------1--------1--|-----1--------1-|-----0-----0-|-----0-----0--|
G|----2--------2----|---0--------0---|---0-----0---|---0-----0----|
D|--2--------2------|-2--------2-----|-2-----2-----|-2-----2------|
A|------------------|----------------|-------------|--------------|
E|------------------|----------------|-------------|--------------|
    Over and over and over and over again now

[couplet]
e|------------0-----|-----------0-----|-----------0-----|-----------0------|
B|--------1-----1---|-------1-----1---|-------1-----1---|-------1-----1----|
G|------2---2-----2-|-----2---2-----2-|-----2---2-----2-|-----2---2-----2--|
D|--0h2-------------|-0h2-------------|-0h2-------------|-0h2--------------|
A|------------------|-----------------|-----------------|------------------|
E|------------------|-----------------|-----------------|------------------|
    Running through my life right now    I don't regret a thing
e|------------0-----|-----------0-----|-----------0-----|-----------0------|
B|--------1-----1---|-------1-----1---|-------1-----1---|-------1-----1----|
G|------2---2-----2-|-----2---2-----2-|-----2---2-----2-|-----2---2-----2--|
D|--0h2-------------|-0h2-------------|-0h2-------------|-0h2--------------|
A|------------------|-----------------|-----------------|------------------|
E|------------------|-----------------|-----------------|------------------|
  The things I do just make me laugh     and make me wanna drink

e|------------0-----|-----------0-----|-----------0-----|-----------0------|
B|--------1-----1---|-------1-----1---|-------0-----0---|-------0-----0----|
G|------2---2-----2-|-----0---0-----0-|-----0---0-----0-|-----0---0-----0--|
D|--0h2-------------|-0h2-------------|-0h2-------------|-0h2--------------|
A|------------------|-----------------|-----------------|------------------|
E|------------------|-----------------|-----------------|------------------|
   I'd like to meet  a mad  man          who  makes it all seem sane
e|------------0-----|-----------0-----|-----------0-----|-----------0------|
B|--------1-----1---|-------1-----1---|-------0-----0---|-------0-----0----|
G|------2---2-----2-|-----0---0-----0-|-----0---0-----0-|-----0---0-----0--|
D|--0h2-------------|-0h2-------------|-0h2-------------|-0h2--------------|
A|------------------|-----------------|-----------------|------------------|
E|------------------|-----------------|-----------------|------------------|
  To work out all these troubles and     what there is to gain          I'm falling

[refrain]
e|------0--------0--|-----0--------0-|-----0-----0-|-----0-----0--|
B|------1--------1--|-----1--------1-|-----0-----0-|-----0-----0--|
G|----2--------2----|---0--------0---|---0-----0---|---0-----0----|
D|--2--------2------|-2--------2-----|-2-----2-----|-2-----2------|
A|------------------|----------------|-------------|--------------|
E|------------------|----------------|-------------|--------------|
    Over and over and over and over    again now            Calling 
e|------0--------0--|-----0--------0-|-----0-----0-|-----0-----0--|
B|------1--------1--|-----1--------1-|-----0-----0-|-----0-----0--|
G|----2--------2----|---0--------0---|---0-----0---|---0-----0----|
D|--2--------2------|-2--------2-----|-2-----2-----|-2-----2------|
A|------------------|----------------|-------------|--------------|
E|------------------|----------------|-------------|--------------|
    Over and over and over and over again now

[couplet]
e|------------0-----|-----------0-----|-----------0-----|-----------0------|
B|--------1-----1---|-------1-----1---|-------1-----1---|-------1-----1----|
G|------2---2-----2-|-----2---2-----2-|-----2---2-----2-|-----2---2-----2--|
D|--0h2-------------|-0h2-------------|-0h2-------------|-0h2--------------|
A|------------------|-----------------|-----------------|------------------|
E|------------------|-----------------|-----------------|------------------|
     Projecting what I want is           always hard to   know
e|------------0-----|-----------0-----|-----------0-----|-----------0------|
B|--------1-----1---|-------1-----1---|-------1-----1---|-------1-----1----|
G|------2---2-----2-|-----2---2-----2-|-----2---2-----2-|-----2---2-----2--|
D|--0h2-------------|-0h2-------------|-0h2-------------|-0h2--------------|
A|------------------|-----------------|-----------------|------------------|
E|------------------|-----------------|-----------------|------------------|
    But when it comes between my sights I'll let the damage show

e|------------0-----|-----------0-----|-----------0-----|-----------0------|
B|--------1-----1---|-------1-----1---|-------0-----0---|-------0-----0----|
G|------2---2-----2-|-----0---0-----0-|-----0---0-----0-|-----0---0-----0--|
D|--0h2-------------|-0h2-------------|-0h2-------------|-0h2--------------|
A|------------------|-----------------|-----------------|------------------|
E|------------------|-----------------|-----------------|------------------|
   I'd like to meet a space man,        who's got it going on
e|------------0-----|-----------0-----|-----------0-----|-----------0------|
B|--------1-----1---|-------1-----1---|-------0-----0---|-------0-----0----|
G|------2---2-----2-|-----0---0-----0-|-----0---0-----0-|-----0---0-----0--|
D|--0h2-------------|-0h2-------------|-0h2-------------|-0h2--------------|
A|------------------|-----------------|-----------------|------------------|
E|------------------|-----------------|-----------------|------------------|
    Sailing through the stars at night 'til our world is gone           I'm falling

[refrain]
e|------0--------0--|-----0--------0-|-----0-----0-|-----0-----0--|
B|------1--------1--|-----1--------1-|-----0-----0-|-----0-----0--|
G|----2--------2----|---0--------0---|---0-----0---|---0-----0----|
D|--2--------2------|-2--------2-----|-2-----2-----|-2-----2------|
A|------------------|----------------|-------------|--------------|
E|------------------|----------------|-------------|--------------|
    Over and over and over and over    again now            Calling 
e|------0--------0--|-----0--------0-|-----0-----0-|-----0-----0--|
B|------1--------1--|-----1--------1-|-----0-----0-|-----0-----0--|
G|----2--------2----|---0--------0---|---0-----0---|---0-----0----|
D|--2--------2------|-2--------2-----|-2-----2-----|-2-----2------|
A|------------------|----------------|-------------|--------------|
E|------------------|----------------|-------------|--------------|
    Over and over and over and over again now
e|------0--------0--|-----0--------0-|-----0-----0-|-----0-----0--|
B|------1--------1--|-----1--------1-|-----0-----0-|-----0-----0--|
G|----2--------2----|---0--------0---|---0-----0---|---0-----0----|
D|--2--------2------|-2--------2-----|-2-----2-----|-2-----2------|
A|------------------|----------------|-------------|--------------|
E|------------------|----------------|-------------|--------------|
    Over and over and over and over    again now            Calling 
e|------0--------0--|-----0--------0-|-----0-----0-|-----0-----0--|
B|------1--------1--|-----1--------1-|-----0-----0-|-----0-----0--|
G|----2--------2----|---0--------0---|---0-----0---|---0-----0----|
D|--2--------2------|-2--------2-----|-2-----2-----|-2-----2------|
A|------------------|----------------|-------------|--------------|
E|------------------|----------------|-------------|--------------|
    Over and over and over and over again now

            
Submit corrections


        Over And Over lessons Hard to play? Try these video lessons and learn fast Over And Over lessons
        
↑ Back to top | Tablatures and chords for acoustic guitar and electric guitar, ukulele, drums are parodies/interpretations of the original songs. You may use it for private study, scholarship, research or language learning purposes only