» » »

Morbid Angel - To The Victor The Spoils Tabs

Artists:  A B C D E F G H I J K L M N O P Q R S T U V W X Y Z # 

To The Victor The Spoils Tabs

(ver. 3) Click to play this song!
Morbid Angel
 Rating:
4/5 (4 votes)

 To The Victor The Spoils lessons Tabs too difficult? Try these video lessons and learn fast
 
                
Trmlo Picking - "


                                  Intro
e--------------------------------------------------------------------------------------------
B--------------------------------------------------------------------------------------------
G--------------------------------------------------------------------------------------------
D--------------------------------------------------------------------------------------------
A--------------------------------------------------------------------------------------------
D-4-4-4-4-4-4-4-2-2-2-2-1-1-1-1-4-4-4-2-2-1-1-0-5-5-5-5-5-5-5-5-3-3-3-3-2-2-2-5-5-5-3-3-2-2-0    x8
"""""""""""""""""""""""""""""""""""""""""""""""""""""""""""""""""""""""""""""""""""""""""""""

|---------------------------------------------|
|---------------------------------------------|
|---------------------------------------------|
|--------------3-2---------------3-----3-2----|
|------------------5-----------------------5--|
|-222222222222-------1-0-2-6-4-3---0-0--------|
  """"""""""""              

|-----------------------------------------------------|
|-----------------------------------------------------|
|-----------------------------------------------------|
|----------------------------------------------3-2----|
|--------------------------------------------------5--|
|-1-0-2-3-4-6--1-0-2-6-4-3--1-0-2-3-4-6--1-0-2--------|



|-------------------------------------------------------------------|
|-------------------------------------------------------------------|
|-------------------------------------------------------------------|
|-------------------------------------------------------------------|
|-------------------------------------------------------------------|
|-0000111122221111111155551111222222225555666655525555222266665555--|
  """"""""""""""""""""""""""""""""""""""""""""""""""""""""""""""""


|------------------------------------------------------------------|
|------------------------------------------------------------------|
|------------------------------------------------------------------|
|------------------------------------------------------------------|
|---------33-------------------------------33--------1111--1111----|
|-22112211--2211223322112233221122-22112211--22112211----22----22--|
  """"""""  """""""""""""""""""""" """"""""  """"""""""""""""""""
 

Lyrics: Decide, between the ways of the weak,
the sheep, to live a lie
or to come to life, in victory we stand,
above the meek
to raise the chalice and toast the conquering
to feast upon the spoils that we claim

We are wakening
We are the one you seek
We are the merciless
We are the all is truth

We await, the coming of days
The awakening of the eyes that sleep
The dawn of light for those of us who see
to stand above the shattered flock and their lies
for now it is our time

We are the conquering
We are the one you seek
We are the merciless
We are the all that is truth

Victors...now hear me
Victors...come now know your name
Brothers...as it must be
In victory we stand

Our wake, our secret is broken
Our legions now are one
The time of the silence now ended
In victory we stand 
we are the conquering
The clearing out, the storm
            
Submit corrections


        To The Victor The Spoils lessons Hard to play? Try these video lessons and learn fast To The Victor The Spoils lessons
        
↑ Back to top | Tablatures and chords for acoustic guitar and electric guitar, ukulele, drums are parodies/interpretations of the original songs. You may use it for private study, scholarship, research or language learning purposes only