» » »

Morbid Angel - To The Victor The Spoils Tabs

Artists:  A B C D E F G H I J K L M N O P Q R S T U V W X Y Z # 

To The Victor The Spoils Tabs

(ver. 1) Click to play this song!
Morbid Angel
 Rating:
4/5 (4 votes)

 To The Victor The Spoils lessons Tabs too difficult? Try these video lessons and learn fast
 
                Morbid Angel - To The Victor The Spoils
                From the Album Gateways to Annihilation
                Copyright 2000 Earache Records
                Version 1.0 - February 2001


For Questions, Comments, Newest Version, or Corrections contact

.  - palm mute          /  - slide up to
\  - slide down to      ~  - vibrato
h  - hammer on          b  - bend
p  - pull off            Suffixes for bend
                          ph - pinch harmonic
                           f - full bend    h - half bend
*  - see comment           r - release      t - tap bend
X  - percussion mute       ~ - vibrato bend
@  - slight palm mute     () - ghost note, sustained note
"  - tremolo pick

Tune Gtr to Bb

TO THE VICTOR THE SPOILS

Riff 1
|--------------------------------------------------------------------|
|--------------------------------------------------------------------|
|--------------------------------------------------------------------| Gtr.
|--------------------------------------------------------------------|  1
|--------------------------------------------------------------------|
|-44442211442211555555442266556688-44442211442211555555442233223355--|
|								     |
|--------------------------------------------------------------------|
|--------------------------------------------------------------------|
|--------------------------------------------------------------------| Gtr.
|--------------------------------------------------------------------|  2
|-33331100331100444444331155445577-33331100331100444444331122112244--|
|--------------------------------------------------------------------|


Riff 2
|---------------------------------------------|
|---------------------------------------------|
|---------------------------------------------|
|--------------3-2---------------3-----3-2----|
|------------------5-----------------------5--|
|-222222222222-------1-0-2-6-4-3---0-0--------|
pm                   . . . . . .   . .


Riff 3
|-----------------------------------------------------|
|-----------------------------------------------------|
|-----------------------------------------------------|
|----------------------------------------------3-2----|
|--------------------------------------------------5--|
|-1-0-2-3-4-6--1-0-2-6-4-3--1-0-2-3-4-6--1-0-2--------|
pm. . . . . .  . . . . . .  . . . . . .  . . .


Riff 4
|-------------------------------------------------------------------|
|-------------------------------------------------------------------|
|-------------------------------------------------------------------|
|-------------------------------------------------------------------|
|-------------------------------------------------------------------|
|-0000111122221111111155551111222222225555666655525555222266665555--|


Riff 5
|------------------------------------------------------------------|
|------------------------------------------------------------------|
|------------------------------------------------------------------|
|------------------------------------------------------------------|
|---------33-------------------------------33--------1111--1111----|
|-22112211--2211223322112233221122-22112211--22112211----22----22--|
            
Submit corrections


        To The Victor The Spoils lessons Hard to play? Try these video lessons and learn fast To The Victor The Spoils lessons
        
↑ Back to top | Tablatures and chords for acoustic guitar and electric guitar, ukulele, drums are parodies/interpretations of the original songs. You may use it for private study, scholarship, research or language learning purposes only