» » »

Morbid Angel - Invocation Of The Continual One Tabs

Artists:  A B C D E F G H I J K L M N O P Q R S T U V W X Y Z # 

Invocation Of The Continual One Tabs

(ver. 2) Click to play this song!
Morbid Angel
 Rating:
2.3/5 (28 votes)

 Invocation Of The Continual One lessons Tabs too difficult? Try these video lessons and learn fast
 
                Tuning: Eb

Riff A
|----------------------------|----------------------------|
|----------------------------|----------------------------|
|----------------------------|----------------------------|
|--3-----4-------------------|----------------------------|
|--1-----2-----2--2--2--2----|--4--5-----5----------------|
|----------------------------|--2--3--3--3-----3--3--3----|

|----------------------------|----------------------------|
|----------------------------|----------------------------|
|----------------------------|----------------------------|
|--8-----9-----9--9-----9----|----------------------------|
|--6-----7-----7--7-----7----|--9--10----10-------10------|
|--6-----7-----7--7-----7----|--7--8--8--8--8--8--8--8----|

Riff B
|-----------------------------------------|
|-----------------------------------------|
|-----------------------------------------|
|--------------7---7--------------8---8---|
|-----4--5-----5---5-----7--8-----6---6---|
|--0--2--3--0---------0--5--6--0----------|

Riff C
|----------------------------------------------------|
|----------------------------------------------------|
|----------------------------------------------------|
|-------------------------------------------7--9--8--|
|-----------9--8---8h9p8h9p8h9\7h8p7h8p7h8-----------|
|--0--10---------------------------------------------|

this is about as close as i could get with it

Riff D
|-------------------------------------|
|-------------------------------------|
|--------9--7-------------10-12-9-----|
|--------------9-------10---------10--|
|-----7-----------9--8----------------|
|--0----------------------------------|

Riff E
|----------------------------------------|
|----------------------------------------|
|----------------------------------------|
|-----------------7------------7*-6*-----|
|--------7------------------7--------7*--|
|--0--6-----0--6------0--6---------------|

Riff F
|-----------------------------------------------|
|-----------------------------------------------|
|-----------------------------------------------|
|-----------------------2-----------4--5--------|
|--2-----------5--4-----0-----0--0--2--3--5--6--|
|--0-----0--0--3--2--0--------------------3--4--|

|------------------------------------------------|
|------------------------------------------------|
|------------------------------------------------|
|-----------------------2------------------------|
|--2-----------5--4-----0---7--8--5--7--3--5--2--|
|--0-----0--0--3--2--0---------------------------|

Riff G
|---------------------------------------------|
|---------------------------------------------|
|---------------------------4--5--7--5--------|
|-----------------------2---------------------|
|--2-----------5--4-----0---2--3--5--3--5--4--|
|--0-----0--0--3--2--0------------------3--2--|

|---------------------------------------------|
|---------------------------------------------|
|---------------------------4--5--8--7--------|
|-----------------------2---------------------|
|--2-----------5--4-----0---2--3--6--5--7--5--|
|--0-----0--0--3--2--0------------------5--3--|


Riff H
|--------------------------------------------------------------------------------------------|
|--------------------------------------------------------------------------------------------|
|--------------------------------------------------------------------------------------------|
|--------------------------------------------------------------------------------------------|
|--7-7-7-7-7-7-7-7-8-8-8-8-8-8-8-8-12-12-12-12-12-12-12-12-12-11-11-11-11-11-11-11-11-11-11--|
|--------------------------------------------------------------------------------------------|

|--------------------------------------------------------------------------------------------|
|--------------------------------------------------------------------------------------------|
|--------------------------------------------------------------------------------------------|
|--------------------------------------------------------------------------------------------|
|--7-7-7-7-7-7-7-7-8-8-8-8-8-8-8-8-15-15-15-15-15-15-15-15-15-14-14-14-14-14-14-14-14-14-14--|
|--------------------------------------------------------------------------------------------|

Riff I
|-----------------------------------------|
|-----------------------------------------|
|-----------------------------------------|
|------------9-------------12-------------|
|------------7-------------10-------5--4--|
|--0---0--0-------0--0---0-------0--3--2--|

Riff J
|--------------------------------------------------------------------------|
|--------------------------------------------------------------------------|
|--------------------------------------------------------------------------|
|--------------------------------------------------------------------------|
|--2---------5--4-----9----------5--4-----8----------5--4-----9---9--8--7--|
|--0---0--0--3--2--0--7----0--0--3--2--0--6----0--0--3--2--0--7---7--6--5--|

Riff K
|------------------------------------------------|
|------------------------------------------------|
|------------------------------------------------|
|--4---3---------------------5--4----------------|
|--2---1---1--1--1--1--4--5--3--2--2--2--2--2----|
|----------------------2--3----------------------|

|----------------------------------------------|
|----------------------------------------------|
|----------------------------------------------|
|--4---3---------------------------------------|
|--2---1---1--1--1--1--------------3--0--2*----|
|----------------------2--3--0--2--------------|

Riff L
|---------------------------------------------------------------|
|---------------------------------------------------------------|
|---------------------------------------10--10------------------|
|-------------------3---------4--------------------------11-10--|
|--2----------------1---------2---------8---8------10-11-9--8---|
|--0----0--0--0--0------0--0------0--0-------------8--9---------|

|---------------------------------------------------------------|
|---------------------------------------------------------------|
|---------------------------------------11--11------------------|
|-------------------3---------4--------------------------12-11--|
|--2----------------1---------2---------9---9------10-11-10-9---|
|--0----0--0--0--0------0--0------0--0-------------8--9---------|

Riff M
|------------------------------------------|
|------------------------------------------|
|----------------------------------10------|
|------------------------------------------|
|------------8--9------------------8-------|
|--0---0--0--6--7--0--0--0---0--0----------|

|----------------------------------------------|
|----------------------------------------------|
|----------------------------------------------|
|----------------------------------------------|
|------------8--9--------------3--4------3--4--|
|--0---0--0--6--7--0--0--0-----1--2--0---1--2--|

Riff N
|---------------------------|
|---------------------------|
|---------------------------|
|---------------------------|
|--2----2--2--2----2--2--2--|
|--0----0--0--0----0--0--0--|

Riff O
|--------------------------|
|--------------------------|
|--------------------------|
|--------------------------|
|--2--2--2--2--2--2--2--2--|
|--0--0--0--0--0--0--0--0--|

Riff P
|-------------------------------------------------|
|-------------------------------------------------|
|-------------------------------------------------|
|--9----------------------------------------------|
|--7------------10-9-----9--------10-------9--10--|
|------0--0--0--8--7--0--7--0--0--8--0--0--7--8---|

Riff Q
|------------------------------------------------|
|------------------------------------------------|
|------------------------------------------------|
|--9---------------------------------------------|
|--7------------10-9-----9--------8*-----9--10---|
|------0--0--0--8--7--0--7--0--0---------7--8----|

Riff R
|--------------------------------------|---------------------------------------------------|
|--------------------------------------|---------------------------------------------------|
|--------------------------------------|-----------------------------11-12--11-12--11------|
|--11-------11-------11-------11-------|--11-------11-------11-----------------------------|
|--9--9--9--9--9--9--9--9--9--9--9--9--|--9--9--9--9--9--9--9--9--9--9--10--9--10--9-------|
|--------------------------------------|---------------------------------------------------|

Riff S
|-------|-------|-------|----------|-------|-------|------|
|-------|-------|-------|----------|-------|-------|------|
|--11---|--14---|--13---|--16-14---|--11---|--14---|--9---|
|-------|-------|-------|----------|-------|-------|------|
|--9----|--12---|--11---|--14-12---|--9----|--12---|--7---|
|-------|-------|-------|----------|-------|-------|------|

Riff T
|----------------------------|----------------------------|
|----------------------------|----------------------------|
|----------------------------|----------------------------|
|----------------------------|----------------------------|
|--4-----------4-------------|--4-------------------------|
|--2-----2--2--2-----2--2----|--2-----2--2--2--0--2--3----|
            
Submit corrections


        Invocation Of The Continual One lessons Hard to play? Try these video lessons and learn fast Invocation Of The Continual One lessons
        
↑ Back to top | Tablatures and chords for acoustic guitar and electric guitar, ukulele, drums are parodies/interpretations of the original songs. You may use it for private study, scholarship, research or language learning purposes only