» » »

Morbid Angel - Invocation Of The Continual One Tabs

Artists:  A B C D E F G H I J K L M N O P Q R S T U V W X Y Z # 

Invocation Of The Continual One Tabs

(ver. 1) Click to play this song!
Morbid Angel
 Rating:
3.3/5 (6 votes)

 Invocation Of The Continual One lessons Tabs too difficult? Try these video lessons and learn fast
 
                Album:love of lava

Version 1.1


============================================================================
Notation: b = full bend         / = slide up            a.h. = artificial
          r = release           \ = slide down                 harmonic
          ~ = vibrato           h = hammer-on           tr = trillo
          . = palm mute(pm)     p = pull-off            t = tapping
          " = tremolo pick
============================================================================
Tuning: Eb Bb Gb Db Ab Eb



|--17--19-----17----17-19--------17h19p17h19p17-----/14h17h19p17p14---------
|
|--17-----20-----19--------17h19----------------19--------------------------
|
|---------------------------------------------------------------------------
|
|---------------------------------------------------------------------------
|
|---------------------------------------------------------------------------
|
|---------------------------------------------------------------------------
|
                 "     "


|-17--19---17----17-19-------17h19p17h19p17----/14h17h20p17h19p17p14h17h19--
|
|-17----20----19-------17h19----------------19------------------------------
|
|---------------------------------------------------------------------------
|
|---------------------------------------------------------------------------
|
|---------------------------------------------------------------------------
|
|---------------------------------------------------------------------------
|
              "      "


|--19b-19b--19b-------14h17p14h17p14h17p14----------------------------------
|
|-----------------------------------------------14-17p14------14-17p14------
|
|--------------------------------------------16------------16---------------
|
|---------------------------------------------------------------------------
|
|---------------------------------------------------------------------------
|
|---------------------------------------------------------------------------
|

                                       0:15
|--------------------------------0------------------------------------------
|
|------14-17p14------14-17p14----0------------------------------------------
|
|---16------------16------------16b-----------------------------------------
|
|---------------------------------------------------------------------------
|
|---------------------------------------------------------------------------
|
|---------------------------------------------------------------------------
|
                                       here stars a bar part

         0:22
|---------------------------------------------------------------------------
|
|--20b----------------------------------------------------17h19h20----------
|
|------------------------------------------------17h19h20-------------------
|
|----------------------------------14/16---16-19----------------------------
|
|------------------------14h16h17-------------------------------------------
|
|--------------14h15h17-----------------------------------------------------
|
            very fast


|--------------19h21h22p21p19-19h21h22p21p19-19h21h22p21p19-----19----------
|
|----19h20h22------------------------------------------------22----22-20-22-
|
|-19------------------------------------------------------------------------
|
|---------------------------------------------------------------------------
|
|---------------------------------------------------------------------------
|
|---------------------------------------------------------------------------
|



|---------------------------------------------------------------------------
|
|-19-19-20-22-20-19--------19-20-22-20-19-20p19--------20h21p20p19----------
|
|-------------------21-19-----------------------19-19--------------18-19----
|
|---------------------------------------------------------------------------
|
|---------------------------------------------------------------------------
|
|---------------------------------------------------------------------------
|



|---------------------------19-21-22-21-19----------------------------------
--|
|-20h21p20p19------------------------------22-20-19---------19-20b---19-20-1
9-|
|--------------19-19-20-21---------------------------21-19------------------
--|
|---------------------------------------------------------------------------
--|
|---------------------------------------------------------------------------
--|
|---------------------------------------------------------------------------
--|



                  0:33
|---------------------------------------------------------------------------
|
|-19-20p19------------------10----10-11-------11-14p11-----11-14p11---------
|
|----------21-19-21------11----11--------(11)-----------11------------------
|
|---------------------------------------------------------------------------
|
|---------------------------------------------------------------------------
|
|---------------------------------------------------------------------------
|


|---------------------------------------------------------------------------
|
|------11-14p11-----11-14p11-----12-15p12-----11-14p11-----11-14p11---------
|
|--11------------11-----------12-----------11-----------11------------------
|
|---------------------------------------------------------------------------
|
|---------------------------------------------------------------------------
|
|---------------------------------------------------------------------------
|


|---------------------------------------------------------------------------
|
|------11-14p11-----11-14p11------------------------------------------------
|
|--11------------11---------------------------------------------------------
|
|---------------------------------------------------------------------------
|
|---------------------------------------------------------------------------
|
|---------------------------------------------------------------------------
|



nothing to say.......one of the best solo I've ever heard......
            
Submit corrections


        Invocation Of The Continual One lessons Hard to play? Try these video lessons and learn fast Invocation Of The Continual One lessons
        
↑ Back to top | Tablatures and chords for acoustic guitar and electric guitar, ukulele, drums are parodies/interpretations of the original songs. You may use it for private study, scholarship, research or language learning purposes only