Home » M » Moore Gary »

Moore Gary - Parisienne Walkways Tabs

Artists:  A B C D E F G H I J K L M N O P Q R S T U V W X Y Z # 

Parisienne Walkways Tabs

(ver. 2) Click to play this song!
Moore Gary
There is already a partial tab to this song on OLGA, but this is my
own attempt at arranging the lead and rhythm parts together for one
guitar, based on a tab I posted to r.m.m.g.t earlier this year.
The key has been changed and there are one or two slight compromises
to allow easier fingering, but on the whole I think it works well as
an acoustic instrumental piece.

Regards, Malc


Parisienne Walkways by Phil Lynott and Gary Moore


Tuning:
Standard, EADGBE.


E|---------------------------|
B|---------------------------|
G|--------9\----4\----0------|
D|---------------------------|
A|---------------------------|
E|-------12\----7\----3------|


    Em                          Am7
E|--7---------5--------------|------------7-5------------|
B|--------0-----8---7---5----|---------------------------|
G|------0---0-------0---0-7--|--5-----5-----------5------|
D|---------------------------|------5---5-------5---5----|
A|----7-------7---7---7---7--|----7-------7---7-------7--|
E|--0-----------0------------|--5-----------5------------|


    Am7add4                     G
E|--5------------------------|------------5-3------------|
B|------------8-7---5--------|--0------------------------|
G|--------5-------------7-5--|--------0-----------0------|
D|------5---5-------5---5----|------0---0-------0---0----|
A|----5-------5---5---5---5--|----2-------2---2-------2--|
E|--5-----------5------------|--3-----------3------------|


    Cmaj7                       Am/F#
E|--3---------2-0------------|------------3-2------------|
B|--------0---------3---1-0--|---------------------------|
G|------0---0-------0---0----|--2-----2-----------2------|
D|----2-------2---2---2---2--|------2---2-------2---2----|
A|--3-----------3------------|----0-------0---0-------0--|
E|---------------------------|--2-----------2------------|

    B7/F#                       Em
E|--2------------------------|---------------------------|
B|------------5-4------------|---------------------------|
G|--------2---------5---4-2--|--0-----9\----4\----0------|
D|------4---4-------4---4----|---------------------------|
A|----2-------2---2---2---2--|---------------------------|
E|--2-----------2------------|--0----12\----7\----3------|


    Em                          Am7
E|--7---------5--------------|------------7-5------------|
B|--------0-----8---7---5----|---------------------------|
G|------0---0-------0---0-7--|--5-----5-----------5------|
D|---------------------------|------5---5-------5---5----|
A|----7-------7---7---7---7--|----7-------7---7-------7--|
E|--0-----------0------------|--5-----------5------------|


    Am7add4                     G
E|--5------------------------|------------5-3------------|
B|------------8-7---5--------|--0------------------------|
G|--------5-------------7-5--|--------0-----------0------|
D|------5---5-------5---5----|------0---0-------0---0----|
A|----5-------5---5---5---5--|----2-------2---2-------2--|
E|--5-----------5------------|--3-----------3------------|


    Cmaj7                       Am/F#       B/F#
E|--3---------2-0------------|------------3-2------------|
B|--------0---------3---1-0--|------------------------4--|
G|------0---0-------0---0----|--2-----2-----------4------|
D|----2-------2---2---2---2--|------2---2-------4---4----|
A|--3-----------3------------|----0-------0---2-------2--|
E|---------------------------|--2-----------2------------|

    E           F#m/E           E
E|--0------------------------|--0--|
B|------------------------2--|--0--|
G|--------1-----------2---2--|--1--|
D|------2---2-------4---4----|--2--|
A|----2-------2---4----------|--2--|
E|--0-----------0------------|--0--|


                                Am7
E|--------------7-----/10----|--10--------8-8------------|
B|--------9--10--------------|---------------------------|
G|---------------------------|--------5-----------5------|
D|---------------------------|------5---5-------5---5----|
A|---------------------------|----7-------7---7-------7--|
E|---------------------------|--5-----------5------------|


    Am7add4                     G/B         G
E|--------------5-----8------|--8---------7-7------------|
B|--------7---8--------------|--------0-----------0------|
G|--------5-----------5------|------0---0-------0---0----|
D|------5---5-------5---5----|----0-------0---0-------0--|
A|----5-------5---5-------5--|---------------------------|
E|--5-----------5------------|--7-----------3------------|


    Cmaj7                       Am7
E|--------0---2-3----/7------|--7---------5-5------------|
B|--------0-----------0------|---------------------------|
G|------0---0-------0---0----|--------5-----------5------|
D|----2-------2---2----------|------5---5-------5---5----|
A|--3-----------3---------7--|----7-------7---7-------7--|
E|---------------------------|--5-----------5------------|


    B7/F#                       Em
E|--------------2-----5------|--5---------3-3------------|
B|--------4---5--------------|--------0------------------|
G|--------2-----------2------|------0---0----------------|
D|------4---4-------4---4----|----2-------2-----2-----2--|
A|----2-------2---2-------2--|----------------3-----4----|
E|--2-----------2------------|--0-----------0-----0------|


    E                           Am7
E|------------------13--12---|--10--------8-8------------|
B|--------9-10-12-9---9---9--|--------5-----------5------|
G|---------------------------|------5---5-------5---5----|
D|--6-----6--7--9------------|----5-------5---5-------5--|
A|--7------------------------|--0-----------0------------|
E|--0------------------------|---------------------------|


    Am7add4                     G/B         G
E|--------------5-----8------|--8---------7-7------------|
B|--------7---8--------------|--------0-----------0------|
G|--------5-----------5------|------0---0-------0---0----|
D|------5---5-------5---5----|----0-------0---0-------0--|
A|----5-------5---5-------5--|---------------------------|
E|--5-----------5------------|--7-----------3------------|


    Cmaj7                       Am7
E|--------0---2-3----/7------|--7---------5-5------------|
B|--------0-----------0------|---------------------------|
G|------0---0-------0---0----|--------5-----------5------|
D|----2-------2---2----------|------5---5-------5---5----|
A|--3-----------3---------7--|----7-------7---7-------7--|
E|---------------------------|--5-----------5------------|


    F#/C#                       B           C
E|--7------------------------|---------------------------|
B|--------5---7-7-----5---5--|--7------------------------|
G|------6---6-------6---6----|--------8-----------9------|
D|----4-------4---4-------4--|------9---9-------10--10---|
A|--4-----------4------------|----9-------9---10------10-|
E|---------------------------|--7-----------8------------|


    B   (hold as long as possible)
E|--7-----7~~~~~~~~~~~~~~~~~~|
B|--7------------------------|
G|--8------------------------|
D|--9------------------------|
A|--9------------------------|
E|--7------------------------|


                                Am7
E|~~~~~~~~~~~~5--------------|------------7-5------------|
B|--------------8---7---5----|---------------------------|
G|------------------------7--|--5-----5-----------5------|
D|---------------------------|------5---5-------5---5----|
A|---------------------------|----7-------7---7-------7--|
E|---------------------------|--5-----------5------------|


    Am7add4                     G
E|--------5------------------|------------5-3------------|
B|------------8-7---5--------|--0------------------------|
G|--------5-------------7-5--|--------0-----------0------|
D|------5---5-------5---5----|------0---0-------0---0----|
A|----5-------5---5---5---5--|----2-------2---2-------2--|
E|--5-----------5------------|--3-----------3------------|


    Cmaj7                       Am/F#       B/F#
E|--3---------2-0------------|------------3-2------------|
B|--------0---------3---1-0--|------------------------4--|
G|------0---0-------0---0----|--2-----2-----------4------|
D|----2-------2---2---2---2--|------2---2-------4---4----|
A|--3-----------3------------|----0-------0---2-------2--|
E|---------------------------|--2-----------2------------|


    Em          Am7             Em          C     Bm
E|--0------------------------|---------------------------|
B|--------0-----------1------|--------0------------------|
G|----------0-------0---0----|----------0-------0--------|
D|------2-----2---2-------2--|------2-----2---2-------4--|
A|----2---------0------------|----2---------3-------5----|
E|--0------------------------|--0-----------------7------|


    Em          Am7             Em          C     Bm
E|--0------------------------|---------------------------|
B|--------0-----------1------|--------0------------------|
G|----------0-------0---0----|----------0-------0--------|
D|------2-----2---2-------2--|------2-----2---2-------4--|
A|----2---------0------------|----2---------3-------5----|
E|--0------------------------|--0-----------------7------|


    Em
E|-------0-------------------|
B|------0--------------------|
G|-----0---------------------|
D|----2----------------------|
A|---2-----------------------|
E|--0------------------------|
            
Submit corrections

↑ Back to top | Tablatures and chords for acoustic guitar and electric guitar, ukulele, drums are parodies/interpretations of the original songs. You may use it for private study, scholarship, research or language learning purposes only