Home » M » Monty Are I »

Monty Are I - In This Legacy Tabs

Artists:  A B C D E F G H I J K L M N O P Q R S T U V W X Y Z # 

In This Legacy Tabs
Version #2
Monty Are I


Copy URL
(Intro)

                       -INTRO- [Distortion]

------------------------------------------------------------|
------------------------------------------------------------|
------------------------------------------------------------|
-6-6-x-x-x-x-----2-2-X-X-X-X--------------------------------|  x2
-6-6-x-x-x-x-x3--2-2-X-X-X-X-x3-----------------------------|
-4-4-x-x-x-x-----0-0-X-X-X-X--------------------------------|


                        -VERSE- [Distortion]

------------------------------------------------------------|
------------------------------------------------------------|
------------------------------------------------------------|
-6-X-6-X-6-X-6---2-2---------------2-2----------------------|  x2
-6-X-6-X-6-X-6---2-2--2h1---2h1----2-2--2h1--2h1------------|
-4-X-4-X-4-X-4---0-0------2-----2--0-0-----2----2-----------|
                 PM--              PM--


Sorry I only tabbed the first bit, but I need some more time. Ill post the whole song 

                             -Brendan-
            
Submit corrections

↑ Back to top | Tablatures and chords for acoustic guitar and electric guitar, ukulele, drums are parodies/interpretations of the original songs. You may use it for private study, scholarship, research or language learning purposes only