» » »

Montrose - Rock Candy Tabs

Artists:  A B C D E F G H I J K L M N O P Q R S T U V W X Y Z # 

Rock Candy Tabs

(ver. 2) Click to play this song!
Montrose
 Rating:
4.2/5 (30 votes)

 Rock Candy lessons Tabs too difficult? Try these video lessons and learn fast
 
                 Intro
  Q=78
  N.C.
 4/4
  Gtrs I, II (El. Gtrs. w/ dist.)
  W          W          W          H    Q  E  E
|----------|----------|----------|----------------|
|----------|----------|----------|----------------|
|----------|----------|----------|----------------|
|----------|----------|----------|----------------|
|----------|----------|----------|----------------|
|----------|----------|----------|-----------12\--|


                                            D5A5
  E E     E E S S S S S E.   E E     E E Q  S E.
|--------------------------|---------------------|
|--------------------------|----------------3----|
|--------------------------|----------------2-2--|
|---------2-------------2--|---------2------0-2--|
|---------------------2----|------------------0--|
|-0-3b3.5-------0-3-4------|-0-3b3.5-------------|
|
| Gtr III (El. Gtr. w/ dist.)
| W                          W
|--------------------------|---------------------|
|--------------------------|---------------------|
|--------------------------|---------------------|
|--------------------------|---------------------|
|--------------------------|---------------------|
|--------------------------|---------------------|


  N.C.                                         D5A5
  E E     E E S S S S S E.   E E     E E Q     S E.
|--------------------------|-------------------------|
|--------------------------|-------------------3-----|
|--------------------------|-------------------2-2---|
|---------2-------------2--|---------2---------0-2---|
|---------------------2----|---------------------0---|
|-0-3b3.5-------0-3-4------|-0-3b3.5-----------------|
|
| W                          H           S  E. Q
|--------------------------|-------------x-----------|
|--------------------------|-------------x-----------|
|--------------------------|-------------------------|
|--------------------------|-------------------------|
|--------------------------|-------------------------|
|--------------------------|---------------14\-------|


  N.C.
  E E     E E S S S S S E.   E E     E E Q  S E.
|--------------------------|---------------------|
|--------------------------|----------------3----|
|--------------------------|----------------2-2--|
|---------2-------------2--|---------2------0-2--|
|---------------------2----|------------------0--|
|-0-3b3.5-------0-3-4------|-0-3b3.5-------------|


                                            D5D5
  E E     E E S S S S S E.   E E     E E Q  S E.
|--------------------------|----------------------|
|--------------------------|----------------3-----|
|--------------------------|----------------2-2---|
|---------2-------------2--|---------2------0-2---|
|---------------------2----|------------------0---|
|-0-3b3.5-------0-3-4------|-0-3b3.5--------------|


  N.C.
                  ~
  Q  S E. S S S S Q    E E S E. S S S S S E.   E E S E. S S S S a S S S S
|----0-0-------------|-----0-0---------------|-----0-0---------------------|
|----0--------3-3-5--|-----0-----------------|-----0--------3-5------------|
|---------2s4--------|--------------------0--|----------2s4-----4s2p0------|
|--------------------|--------------------0--|------------------------2p0--|
|--------------------|--------------0-1-2----|-----------------------------|
|-0------------------|-0-0------0-3----------|-0-0-------------------------|


                       Verse
                        N.C.
                  ~
  Q  S E. S S S S Q     Q  S E. S S S S a S S S S   E E S E. S S S S S E.
|----0---------------||----0-0--------------------|-----0-0----------------|
|----0---------------||----0--------3-5-----------|-----0------------------|
|--------------------||---------2s4-----4s2p0-----|--------------------0---|
|---------2-0--------||-----------------------2p0-|--------------------0---|
|-------------2-0----||---------------------------|--------------0-1-2-----|
|-0----0----------3--||-0-------------------------|-0-0------0-3-----------|


                                                 ~                       ~~~
  E E S E. S S E     S S a S S   Q  S E. S S S S Q    Q  S E. S S S S   +Q
|-----0-0------3---------------|----0---------------|----0-0-----------------|
|-----0----5p3-3b3.5-5p3-------|----0---------------|----0--------3-5b7-(5)--|
|------------------------4s2p0-|--------------------|---------2s4------------|
|------------------------------|---------2-0--------|------------------------|
|------------------------------|-------------2-0----|------------------------|
|-0-0--------------------------|-0----0----------3--|-0----------------------|


  E E S E. S S S S S E.   Q  S E. S S S S a S S S S   E E Q  S S S S S E.
|-----0-0---------------|----0-0--------------------|-----0----------------||
|-----0-----------------|----0--------3-5-----------|-----0----------------||
|--------------------0--|---------2s4-----4s2p0-----|----------------------||
|--------------------0--|-----------------------2p0-|--------2-0-----------||
|--------------0-1-2----|---------------------------|------------2-1-0-----||
|-0-0------0-3----------|-0-------------------------|-0-0--------------3---||


 Chorus
  A                                      E7+9
                                             ~~~~~      ~~~~~
  Q  Q  S E. E S S   Q  E S S S E. E E   Q   Q     E E  Q
|------------------|-------------------|----12---------12-----|
|---------3--3-----|-5--5-------3--3---|----14b16------14b16--|
|-2--2-------------|-------------------|----------------------|
|-2--2----4--4-----|-5--5-------4--4---|----------------------|
|-0--0--0------0-0-|-0--0-0-0-0--------|----------------------|
|------------------|-----------------3-|-0---------0-0--------|
|
| Gtr II
| Q  Q  S E. E S S   Q  Q     S E. E E   Q   Q     E E  Q
|------------------|-------------------|----------------------|
|---------3--3-----|-5--5-------3--3---|-----8----------8-----|
|-2--2-------------|-------------------|-----7----------7-----|
|-2--2----4--4-----|-5--5-------4--4---|-----6----------6-----|
|-0--0--0------0-0-|-0--0-----0--------|-----7----------7-----|
|------------------|-----------------3-|-0---------0-0--------|


                           A
      ~~~~~      ~~~~~~
  Q   Q     E E  E     E   Q  Q  S E. E S S   Q  E S S Q  E E
|----12---------12\------|------------------|-----------------|
|----14b16------14b16\---|---------3--3-----|-5--5-----3--3---|
|------------------------|-2--2-------------|-----------------|
|------------------------|-2--2----4--4-----|-5--5-5p2-4--4---|
|------------------------|-0--0--0------0-0-|-0--0-0---0--0---|
|-0---------0-0--------0-|------------------|---------------3-|
|
| Q   Q     E E  E     E   Q  Q  S E. E S S   Q  E S S Q  E E
|------------------------|------------------|-----------------|
|-----8----------8\------|---------3--3-----|-5--5-----3--3---|
|-----7----------7\------|-2--2-------------|-----------------|
|-----6----------6\------|-2--2----4--4-----|-5--5-5p2-4--4---|
|-----7----------7\------|-0--0--0------0-0-|-0--0-0---0--0---|
|-0---------0-0--------0-|------------------|---------------3-|


  E7+9
      ~~~~~       ~~~        ~~~
                                             |--3---|
  Q   Q     S S E Q      E E Q    E Q       +S  +S  S
|----------------------|------------------------------||
|-----8-----------3----|-----3------------------------||
|----10b12--------5b7--|-----5b7----5b7=====(5)r(5)p0-||
|----------------------|------------------------------||
|---------------0------|------------------------------||
|-0---------0-0--------|-0-0------0-------------------||
|
| Q   Q     E   E Q      Q   Q    E E    E   E
|----------------------|------------------------------||
|-----8-----------8----|-----8-----------8\-----------||
|-----7-----------7----|-----7-----------7\-----------||
|-----6-----------6----|-----6-----------6\-----------||
|-----7-----------7----|-----7-----------7\-----------||
|-0---------0---0------|-0--------0-0--------0--------||


 Interlude
  N.C.                                      D5A5   N.C.
  Gtrs I, II
  E E     E E S S S S S E.   E E     E E Q  S E.   E E     E E S S S S S E.
|--------------------------|---------------------|--------------------------|
|--------------------------|----------------3----|--------------------------|
|--------------------------|----------------2-2--|--------------------------|
|---------2-------------2--|---------2------0-2--|---------2-------------2--|
|---------------------2----|------------------0--|---------------------2----|
|-0-3b3.5-------0-3-4------|-0-3b3.5-------------|-0-3b3.5-------0-3-4------|


                 D5A5   N.C.
  E E     E E Q  S E.   Q  S E. S S S S a S S S S   E E S E. S S S S S E.
|---------------------|----0-0--------------------|-----0-0----------------|
|----------------3----|----0--------3-5-----------|-----0------------------|
|----------------2-2--|---------2s4-----4s2p0-----|------------------------|
|---------2------0-2--|-----------------------2p0-|--------------------0---|
|------------------0--|---------------------------|--------------0-1-2-----|
|-0-3b3.5-------------|-0-------------------------|-0-0------0-3-----------|


                                        ~
  Q  Q  E E    +S  E.     Q  Q  S S S S Q
|----0------------------|----0-------------*|
|----0----7--------7----|----0-------------*|
|---------9b11r(9)-9b11-|------------------*|
|-----------------------|-------2p0--------*|
|-----------------------|-----------2-0----*|
|-0-----0---------------|-0-------------3--*|
            
Submit corrections


        Rock Candy lessons Hard to play? Try these video lessons and learn fast Rock Candy lessons
        
↑ Back to top | Tablatures and chords for acoustic guitar and electric guitar, ukulele, drums are parodies/interpretations of the original songs. You may use it for private study, scholarship, research or language learning purposes only