Home » M » Montrose »

Montrose - Bad Motor Scooter Bass

Artists:  A B C D E F G H I J K L M N O P Q R S T U V W X Y Z # 

Bad Motor Scooter Bass

(ver. 1) Click to play this song!
Montrose
                                BAD MOTOR SCOOTER
                             As recorded by Montrose
                         (From the 1973 Album MONTROSE)

 Intro
 4/4
  E. E. H    +E    e e S E E S E S S E
|-------5----(5)-|---------------------|
|----5-----------|---------------------|
|-3--------------|-5-5-0-5-0-5-5-5-5---|
|----------------|---------------------|


  E. E. H    +E    e e S E E S E S S E
|-------5----(5)-|----------------------||
|----5-----------|----------------------||
|-3--------------|-5-5-0-5-0-5-5-5-5----||
|----------------|----------------------||


   Verse
    E. E. H    +E    e e S E E S E S S S S
||--------5----(5)-|-----------------------|
||o----5-----------|-----------------------|
||o-3--------------|-5-5-0-5-0-5-5-----3-5-|
||-----------------|---------------3-5-----|


  E. E. H    +E    e e S E E S E S S S S
|-------5----(5)-|------------------------|
|----5-----------|------------------------|
|-3--------------|-5-5-0-5-0-5-5-----3-5--|
|----------------|---------------3-5------|


  E. E. H    +E    e e S E E S E S S S S
|-------5----(5)-|-----------------------|
|----5-----------|-----------------------|
|-3--------------|-5-5-0-5-0-5-5-----3-5-|
|----------------|---------------3-5-----|


  E. E. H    +E    e e S E E S S S S S S S
|-------5----(5)-|--------------------------||
|----5-----------|--------------------------||
|-3--------------|-5-5-0-5-0-5-5-5-5-4-3-2--||
|----------------|--------------------------||


 Chorus
  S S S S S S S S S S S S S S S S   S S S S S S S S S S S S S S S S
|---------------------------------|---------------------------------|
|---------------------------------|-----4-5-6-7-6-5-0-0-4-5-6-7-6-5-|
|-------------------------------3-|-5-5-----------------------------|
|-1-1-1-1-1-1-1-1-3-3-3-3-3-3-3---|---------------------------------|


  S S S S S S S S S S S S S S S S   S S S S S S S S S S S S S S S S
|---------------------------------|---------------------------------|
|-----------------------------3-5-|-0-0-4-5-6-7-6-5-0-0-4-5-6-7-6-5-|
|-------------------------3-5-----|---------------------------------|
|-1-1-1-1-1-1-1-1-3-3-3-5---------|---------------------------------|


  S S S S S S S S S S S S S S S S   S S S S S S S S S S S S S S S S
|---------------------------------|---------------------------------|
|---------------------------------|-----4-5-6-7-6-5-0-0-4-5-6-7-6-5-|
|---------------------2-2-3-3-4-4-|-5-5-----------------------------|
|-1-1-1-1-1-1-1-1-3-3-------------|---------------------------------|


  S S S S S S S S S S S S S S S S   W
|---------------------------------|-------||
|-3-3-----3-3-4-4-5-5-3-3-2-2-1-1-|------o||
|-----3-3-------------------------|-5----o||
|---------------------------------|-------||


 Interlude
  W          W          W          W
|----------|----------|----------|------|
|-5--------|-7--------|-5--------|-7----|
|-3--------|-5--------|-3--------|-5----|
|----------|----------|----------|------|


  W          E Q  S S S S Q.
|----------|-------------------||
|-5--------|-7-----------------||
|-3--------|-5-----------------||
|----------|--------1---3------||


 Guitar Solo
   S S S S  S S S S  S S S S  S S S S    S S S S  S S S S  S S S e e S
|-------------------------------------|---------------------------------|
|-------------------------------------|---------------------------------|
|-/5-5-5-5-/5-5-5-5-/5-5-5-5-/5-5-5-5-|-/5-5-5-5-/5-5-5-5-/5-5-5-3-3-3--|
|-------------------------------------|---------------------------------|


   S S S S  S S S S  S S S S  S S S S    S S S S  S S S S  S E E E S
|-------------------------------------|------------------------------|
|-------------------------------------|------------------------------|
|-/5-5-5-5-/5-5-5-5-/5-5-5-5-/5-5-5-5-|-/5-5-5-5-/5-5-5-5-/5---------|
|-------------------------------------|----------------------0-1-3-5-|


   S S S S  S S S S  S S S e e S    S S S S  S S S S  S S S e e S
|--------------------------------|--------------------------------|
|--------------------------------|--------------------------------|
|-/5-5-5-5-/5-5-5-5-/5-5-5-3-3-3-|-/5-5-5-5-/5-5-5-5-/5-5-5-3-3-3-|
|--------------------------------|--------------------------------|


   S S S S  S S S S  S S S e e S    S S S S  S S S S  S E E E S
|--------------------------------|------------------------------|
|--------------------------------|------------------------------|
|-/5-5-5-5-/5-5-5-5-/5-5-5-3-3-3-|-/5-5-5-5-/5-5-5-5-/5---------|
|--------------------------------|----------------------0-1-3-5-|


   S S S S  S S S S  S S S S  S S S S    S S S S  S S S S  S S S S S S S S
|-------------------------------------|------------------------------------||
|-------------------------------------|------------------------------------||
|-/5-5-5-5-/5-5-5-5-/5-5-5-5-/5-5-5-5-|-/5-5-5-5-/5-5-5-5-/5-5-------------||
|-------------------------------------|------------------------5-5-4-4-3-3-||


 Out-Chorus
  S S S S S S S S S S S S S S S S   S S S S S S S S S S S S S S S S
|---------------------------------|---------------------------------|
|---------------------------------|-----4-5-6-7-6-5-0-0-4-5-6-7-6-5-|
|-------------------------------3-|-5-5-----------------------------|
|-1-1-1-1-1-1-1-1-3-3-3-3-3-3-3---|---------------------------------|


  S S S S S S S S S S S S S S S S    E.  E.  E.  E.  E  E
|---------------------------------|-----------------------|
|-3-3-----3-3-4-4-5-5-3-3-2-2-1-1-|-----------------------|
|-----3-3-------------------------|-/5--/5--/5--/5--/5-/5-|
|---------------------------------|-----------------------|


  S S S S S S S S S S S S S S S S   S S S S S S S S S S S S S S S S
|---------------------------------|---------------------------------|
|-3-3-----3-3-4-4-5-5-3-3-2-2-1-1-|-0-0-4-5-6-7-6-5-0-0-4-5-6-7-6-5-|
|-----3-3-------------------------|---------------------------------|
|---------------------------------|---------------------------------|


  S S S S S S S S S S S S S S S S    E.  E.  E.  E.  E  E
|---------------------------------|-----------------------|
|-3-3-----3-3-4-4-5-5-3-3-2-2-1-1-|-----------------------|
|-----3-3-------------------------|-/5--/5--/5--/5--/5-/5-|
|---------------------------------|-----------------------|


  S S S S S S S S H      +W           +W           +W
|----------------------|------------|------------|--------|
|----------------------|------------|------------|--------|
|----------------------|------------|------------|--------|
|-1-1-1-1-1-1-1-1-3----|-(3)--------|-(3)--------|-(3)----|


  W          +W           +W           +W
|----------|------------|------------|--------|
|----------|------------|------------|--------|
|----------|------------|------------|--------|
|-3--------|-(3)--------|-(3)--------|-(3)----|


   Q   Q   Q   Q     Q   Q   Q   Q     W          +W
|-----------------|-----------------|-----------|--------*|
|-----------------|-----------------|-----------|--------*|
|-/5--/5--/5--/5--|-/5--/5--/5--/5--|-/5--------|-(5)----*|
|-----------------|-----------------|-----------|--------*|
            
Submit corrections

↑ Back to top | Tablatures and chords for acoustic guitar and electric guitar, ukulele, drums are parodies/interpretations of the original songs. You may use it for private study, scholarship, research or language learning purposes only