» » »

Montgomery Gentry - You Do Your Thing Tabs

Artists:  A B C D E F G H I J K L M N O P Q R S T U V W X Y Z # 

You Do Your Thing Tabs

(ver. 2) Click to play this song!
Montgomery Gentry
 Rating:
4/5 (4 votes)

 You Do Your Thing lessons Tabs too difficult? Try these video lessons and learn fast
 
                Montgomery Gentry-You Do Your Thing

This is pretty simple, but I thought I'd tab
it for anyone who couldn't get it, and give 
myself a chance to tab a simple song first 
and see how it goes. This may not be 
exactly how they play it on the cd, but it 
sounds pretty good, and I think most of the 
notes are correct.

/ = slide      h= hammer on

E---------------------------------------------
B------------3----------------3-------3----
G-----2-/-4-------0---0-----0---0----------
D---0-----------0----0-----0-------0--------
A--------------2----1----3------------------
E---------------------------------------------

E-----------------------------------
B--------3-------------------------
G------2------0-----0-------------
D----0------0-----0---0h2-0h2--
A----------2-----1-----3----3----
E-----------------------------------


Just repeat this little riff for the the first verse,
and the third. (Improvise a little on the end 
of that verse) It sounds good on an acoustic, 
but better on an electric with a little overdrive. 
Just listen to the cd for the timing; it's insanely 
simple once you get it.

            
Submit corrections


        You Do Your Thing lessons Hard to play? Try these video lessons and learn fast You Do Your Thing lessons
        
↑ Back to top | Tablatures and chords for acoustic guitar and electric guitar, ukulele, drums are parodies/interpretations of the original songs. You may use it for private study, scholarship, research or language learning purposes only