» » »

Montgomery Gentry - Lonely & Gone Tabs

Artists:  A B C D E F G H I J K L M N O P Q R S T U V W X Y Z # 

Lonely & Gone Tabs

(ver. 1) Click to play this song!
Montgomery Gentry
 Rating:
4/5 (4 votes)

 Lonely & Gone lessons Tabs too difficult? Try these video lessons and learn fast
 
                Montgomery Gentry - Lonely And Gone (lead solo)


***********************************************************************

h   =   hammer-on                 b   =   bend

p   =   pulloff                   br  =   bend & release

/   =   slide up                  bh  =   bend & hold

r   =   release bend              \   =   slide down

***********************************************************************



E--------------9---------9---------9--------9-------------------------
B---------------12p9------12p9------12p9-----12p9---------------------
G------9h11-11b-------11b-------11b------11b-----11p9-11br-p9-11--9---
D--9h11---------------------------------------------------------11-11-
A---------------------------------------------------------------------
E---------------------------------------------------------------------


E------------------------------12-------------------------------------
B-----9---------------12-------12-12----------------------------------
G--11b-11-9-11b-11-9----11b-9-------14-13-14-13-11/13-13---13-13-13---
D-------------------11--------------------------------16bh-16-16-16---
A---------------------------------------------------------------------
E---------------------------------------------------------------------


E---------------|
B---------------|
G--13-13-13-\---|
D--16-16-16r\---|
A---------------|
E---------------|
            
Submit corrections


        Lonely & Gone lessons Hard to play? Try these video lessons and learn fast Lonely & Gone lessons
        
↑ Back to top | Tablatures and chords for acoustic guitar and electric guitar, ukulele, drums are parodies/interpretations of the original songs. You may use it for private study, scholarship, research or language learning purposes only