» » »

Montgomery Gentry - If You Ever Stop Loving Me2 Tabs

Artists:  A B C D E F G H I J K L M N O P Q R S T U V W X Y Z # 

If You Ever Stop Loving Me2 Tabs

(ver. 2) Click to play this song!
Montgomery Gentry
 Rating:
4/5 (4 votes)

 If You Ever Stop Loving Me2 lessons Tabs too difficult? Try these video lessons and learn fast
 
                Montgomery Gentry  -  If You Ever Stop Loving Me (solo)



**********************************************************************



E------14--------------------------------------------
B--13b--------15-----13----10--------10--------------
B---------14b----12b----9b----7--9bh----9r-p7-----7--
D---------------------------------------------9p7----
A----------------------------------------------------
E----------------------------------------------------

                                 2nd guitar plays note in brackets 
E------14------------------------------------------------(12b)--
B--13b--------15-----13----10-----10----------------10h12-13b---
G---------14b----12b----9b----9bh----9r-p7-----9/11-------------
D------------------------------------------9p7------------------
A---------------------------------------------------------------
E---------------------------------------------------------------
            
Submit corrections


        If You Ever Stop Loving Me2 lessons Hard to play? Try these video lessons and learn fast If You Ever Stop Loving Me2 lessons
        
↑ Back to top | Tablatures and chords for acoustic guitar and electric guitar, ukulele, drums are parodies/interpretations of the original songs. You may use it for private study, scholarship, research or language learning purposes only