Home » M » Monica »

Monica - Angel Of Mine Tabs

Artists:  A B C D E F G H I J K L M N O P Q R S T U V W X Y Z # 

Angel Of Mine Tabs

(ver. 2) Click to play this song!
Monica
#----------------------------------PLEASE
NOTE---------------------------------#
of the #
research. #

^ means to hammer on

Chords:

C    -3201-

F/C  13201-


Monica "Angel of Mine"


To play along with the CD, put a capo on the 1st fret and move all notes
accordingly. The best way to play this is to hold the C chord shape and
when
you need to hit the F bass note, wrap your thumb around and hold it
down.

Sorry but all I have is the intro/verse done up, gonna do the rest
when I have more spare time. If you do figure out the chorus and any


Verse

  [C]                          [F/C]  

1|------------------------------------------------------------------------------------------
2|-1-----1-------1-0-----1---------1------1------1-0-----1-------1-----1--------------------
3|-----0-------0-----0-------------------------0-----0---------------0----------------------
4|---2-------2-------------2----------0^2----2---------2---2-2-----2------------------------
5|-3-----------------------3-------------------------------3--------------------------------
6|-------------------------------1----------------------------------------------------------


1|------------------------0-----------------------------------------------------------------
2|-----1-0-----1-----3-3--------------------------------------------------------------------
3|---0-----0---------0--0---0-2----0-2------------------------------------------------------
4|-2---------2---2---2----------------------------------------------------------------------
5|---------------3--(3)---------------------------------------------------------------------
6|-------------------------------1----------------------------------------------------------
            
Submit corrections

↑ Back to top | Tablatures and chords for acoustic guitar and electric guitar, ukulele, drums are parodies/interpretations of the original songs. You may use it for private study, scholarship, research or language learning purposes only