» » »

Molotov - Yofo Bass

Artists:  A B C D E F G H I J K L M N O P Q R S T U V W X Y Z # 

Yofo Bass

(ver. 2) Click to play this song!
Molotov
 Rating:
4/5 (4 votes)
                la version uno del bass tab esta casi perfecta, lo unico malo es que esta medio tono abajo


bueno asi es cuando chiflan o silban
y el coro y la intro

G|-----------------------------------------------------------------------|
D|---7/9--7-----------7--0------------------------7--4-----------7--4--2-|
A|-----------9--7--9----------5--4--5--7--5--2----------2---2-2----------|
E|-----------------------------------------------------------------------|

y el verso en el otro bass tab estaba bueno y era asi

G|------------------------------------|
D|------------------------------------|
A|----4----4----------6----6----------|
E|-----------6----6-6--------4----4-4-|


asi estaria perfecta saludos desde chile amolotov y a todos sus fans


ALVI
            
Submit corrections

↑ Back to top | Tablatures and chords for acoustic guitar and electric guitar, ukulele, drums are parodies/interpretations of the original songs. You may use it for private study, scholarship, research or language learning purposes only