Home » M » Modest Mouse »

Modest Mouse - Edit The Sad Parts Bass

Artists:  A B C D E F G H I J K L M N O P Q R S T U V W X Y Z # 

Edit The Sad Parts Bass

(ver. 3) Click to play this song!
Modest Mouse

                            Edit the Sad Parts                             


                                                               Modest Mouse
Bass



       E   E   E   E   E   E   E   E      E   E   E   E   E   E   Q     
G||-----------------------------------|------------------11------------|
D||*----------12--14--12--------------|----------12--14------14--12----|
A||*------10--------------10------12--|------12------------------------|
E||---12----------------------12------|--10----------------------------|


   E   E   E   E   E   E   E   E      E   E   E   E   H           
----------------------------------|------------------11---------||
----------12--14--12--------------|----------12--14------------*||
------10--------------10------12--|------12--------------------*||
--12----------------------12------|--10-------------------------||


   E   E   E   E   E   E   E   E      E   E   E   E   H         
----------------------------------|------------------11--------|
----------12--14--12--------------|----------12--14------------|
------10--------------10------12--|------12--------------------|
--12----------------------12------|--10------------------------|


     E   S  S  E.   E   S  E   Q     
|-------------12----------11--------|
|*----------------------------12----|
|*--10--10-10------10--10-----------|
|-----------------------------------|


   E   S  S  E   S  E   S E   E   E  15x   H.            Q     
------------11--11--------------------||----------------------|
-------------------------------------*||----------------12----|
-------------------12--10-9------12--*||----------------------|
--10--10-10------------------10-------||--10------------------|


   W                    Q     Q    Q     Q        W                 
--------------------|--14----14----L----------|--------------------|
--------------------|-------------------12----|--------------------|
--10----------------|-------------------------|--10----------------|
--------------------|-------------------------|--------------------|


   H        E.   Q    S     H.           Q     
------------------------|---------------------|
----------------12----L-|---------------------|
------------------------|--10-----------------|
--10--------L-----------|---------------------|


     E   E   E   E   E   E   E   E      E   E   E   E   E   E   Q     
|-----------------------------------|------------------11------------|
|*----------12--14--12--------------|----------12--14------14--12----|
|*------10--------------10------12--|------12------------------------|
|---12----------------------12------|--10----------------------------|


   E   E   E   E   E   E   E   E      E   E   E   E   H           
----------------------------------|------------------11---------||
----------12--14--12--------------|----------12--14------------*||
------10--------------10------12--|------12--------------------*||
--12----------------------12------|--10-------------------------||


   E   E   E   E   E   E   E   E      E   E   E   E   H         
----------------------------------|------------------11--------|
----------12--14--12--------------|----------12--14------------|
------10--------------10------12--|------12--------------------|
--12----------------------12------|--10------------------------|


     E   S  S  E.   E   S  E   Q     
|-------------12----------11--------|
|*----------------------------12----|
|*--10--10-10------10--10-----------|
|-----------------------------------|


   E   S  S  E   S  E   S E   E   E  15x    Q     H         Q     
------------11--11--------------------||---------14--------------|
-------------------------------------*||*------------------12----|
-------------------12--10-9------12--*||*------------------------|
--10--10-10------------------10-------||---10--------------------|


   W                       S  S  E   Q     S  S  E   Q     
---------------------||-------------11--------------11----|
--------------------*||*----------------------------------|
--10----------------*||*----------------------------------|
---------------------||---10-10-10--------10-10-10--------|


   S  S  E   E   E   S  S  E   E   E  15x   H         H         
--------12--11------------12--11-------||----------------------|
----------------12----------------12--*||----------------------|
--10-10-------------10-10-------------*||----------------------|
---------------------------------------||--10--------10--------|


   H         H            W                   W                  
----------------------|--------------------|-------------------||
----------------------|--------------------|-------------------||
--10--------10--------|--------------------|-------------------||
----------------------|--10----------------|--L----------------||




Duration Legend
---------------
W - whole
H - half
Q - quarter
E - 8th
S - 16th
T - 32nd
X - 64th
. - note dotted
|-n-|  - n-tuplets


Tablature Legend
----------------
L - tied note
x - dead note
g - grace note
(n) - ghost note
> - accentuded note
NH - natural harmonic
AH - artificial harmonic
TH - tapped harmonic
SH - semi harmonic
PH - pitch harmonic
h - hammer on
p - pull off
b - bend
br - bendRelease
pb - preBend
pbr - preBendRelease
brb - bendReleaseBend
\n/ - tremolo bar dip
\n - tremolo bar dive
-/n - tremolo bar Release up
/n\ - tremolo bar inverted dip
/n - tremolo bar return
-\n - tremolo bar Release down
S - shift slide
s - legato slide
/ -  slide into from below or out of upwards
\ -  slide into from above or out of downwards
~ - vibrato
W - wide vibrato
tr - trill
TP - tremolo picking
T - tapping
S - slap
P - pop
< - fade in
^ - brush up
v - brush down
            
Submit corrections

↑ Back to top | Tablatures and chords for acoustic guitar and electric guitar, ukulele, drums are parodies/interpretations of the original songs. You may use it for private study, scholarship, research or language learning purposes only