Home » M » Modest Mouse »

Modest Mouse - Edit The Sad Parts Bass

Artists:  A B C D E F G H I J K L M N O P Q R S T U V W X Y Z # 

Edit The Sad Parts Bass

(ver. 2) Click to play this song!
Modest Mouse
All of the tabs for this song are wrong. It seems like the people that submit it, dont 
what a bass sounds like, or something; Especially the way Eric Judy Plays.

Experience:1 year, intermediate
Bassist:Eric Judy (with a pick)

Verse:
G:7---7-9-7-----------7-9-11-9-7--| 1x
D:--7-------7-4-7-0-7-------------|
A:--------------------------------|
E:--------------------------------|
__________________________________
G:----7-9-7-----------7-9-11-|
D:--7-------7-4-7-0-7--------|
A:7--------------------------|
E:---------------------------|
                                  <2x
G:----7-9-7-----------7-9-11-9-7-|
D:--7-------7-4-7-0-7------------|
A:7------------------------------|
E:-------------------------------|
__________________________________


Chorus: play until the drums stop
G:---------12~---------11----------|
D:------------------------12-------|
A:10-10-10~---10-10-10-------------|
E:---------------------------------|
           11 x3 is pretty fast, almost sounds like 1 pluck
G:---------11(x3)------------------|
D:---------------------------------|
A:----------------10-9----9-12-----|
E:10-10-10-------------10----------|
____________________________________

Interlude:

G:--14------------14-----------------------|
D:-------12-------------12------------12---|
A:---------10-------------10------------10-|
E:10------------10---------------10--------|

__________________________________________

Repeat verse
Repeat Chrorus
Repeat interlude

__________________________________________

Bridge:play a multitude of times, until the end

G:---------11----------11-------12-11----------12-11----|
D:------------------------------------12-------------12-|
A:------------------------10-10----------10-10----------|
E:10-10-10----10-10-10----------------------------------|

___________________________________________

End:

G:----------------------|
D:----------------------|
A:------10-10-----------|
E:10-10-------10~~~~~~~-|
            
Submit corrections

↑ Back to top | Tablatures and chords for acoustic guitar and electric guitar, ukulele, drums are parodies/interpretations of the original songs. You may use it for private study, scholarship, research or language learning purposes only