Home » M » Miyavi »

Miyavi - Gravity Tabs

Artists:  A B C D E F G H I J K L M N O P Q R S T U V W X Y Z # 

Gravity Tabs

(ver. 2) Click to play this song!
Miyavi

Tuning: Drop D


Verses:
e|----------------------------------3---------------|
B|-------5----------5----------5----5-5--------5----|
G|---------7----------7-----5----7--5------------7--|
D|----7----------8-------------------------7--------|
A|--------------------------------------------------|
D|-0----------0----------0---------------0----------|


Pre-Chorus:
e|--------------------------------------------|
B|---------5----------5----------5----------5-|
G|------7----------7----------7----------7----|
D|---7----------7----------7----------7-------|
A|--------------------------------------------|
D|-0----------0----------0----------0---------|

e|--------------------------------------------|
B|---------5----------5-------5----------5----|
G|------7----------7------------7----------7--|
D|---7----------7----------7----------7-------|
A|--------------------------------------------|
D|-0----------0----------0----------0---------|

e|-6--|
B|-5--|
G|-7--|
D|-7--|
A|----|
D|----|

Chorus:
e|---------|
B|---------|
G|-x-x-x-x-|
D|-x-x-x-x-|
A|-0-0-x-x-|
D|-0-0-x-x-|

-Repeat Verses-

-Repeat Chorus-

Bridge:
e|-------------------------------|
B|-------------------------------|
G|-2-2-2-2-2-3-3-3-5-5-5-3-3-3-3-|
D|-2-2-2-2-2-3-3-3-5-5-5-3-3-3-3-|
A|-0-0-0-0-0-1-1-1-3-3-3-1-1-1-1-|
D|-------------------------------|

e|-------------------------------|
B|-------------------------------|
G|-2-2-2-2-3-3-3-3-5-5-5-5-7-7-7-|
D|-2-2-2-2-3-3-3-3-5-5-5-5-7-7-7-|
A|-0-0-0-0-1-1-1-1-3-3-3-3-5-5-5-|
D|-------------------------------|

e|-------------------------------|
B|-------------------------------|
G|-2-2-2-2-2-3-3-3-5-5-5-3-3-3-3-|
D|-2-2-2-2-2-3-3-3-5-5-5-3-3-3-3-|
A|-0-0-0-0-0-1-1-1-3-3-3-1-1-1-1-|
D|-------------------------------|

e|-------------------------------|
B|-------------------------------|
G|-2-2-2-2-2-3-3-3-3-5-5-5-7-7-7-|
D|-2-2-2-2-2-3-3-3-3-5-5-5-7-7-7-|
A|-0-0-0-0-0-1-1-1-1-3-3-3-5-5-5-|
D|-------------------------------|

-Repeat Verses-


Lyrics:
Haiiro ni kusunda kono sora wa kigi no tameiki
Kuroku nigotta kono ame wa daichi no namida

Konkuriito ni kuchi wo fusagare
Shiyoku no tame ni hana mo sogarete
Sore demo ikiru imi wa aru no
Sore demo mamoru kachi wa aru no

Chiisana hoshi no chiisana bokura
Inoredo toki wa sude ni ososugite
Itsushika dekita hizumi ni nanimokamo
Nomikomarete

Mou kowareru

Let me out!

Mijikai ashi no hippari ai to
Tsumi no nasuritsuke ai
Idaita yume wa doko ni kieta
Nani ni baketa?

Ego ga ego wo umitsuzukete
Sosh*te mata betsu no ego wo yobu
Sono kusatta wa no naka ni
Jibun ga iru to omou to

Hakike ga suru.

Let me out!

She is cryin'. Cryin', cryin'
            
Submit corrections

↑ Back to top | Tablatures and chords for acoustic guitar and electric guitar, ukulele, drums are parodies/interpretations of the original songs. You may use it for private study, scholarship, research or language learning purposes only