Home » M » Miyavi »

Miyavi - Guard You Tabs

Artists:  A B C D E F G H I J K L M N O P Q R S T U V W X Y Z # 

Guard You Tabs

(ver. 1) Click to play this song!
Miyavi
Tuning: Standard

e|---------------------------------------------------------------------------|
B|-------------13--15------13--15------13--15------13--15------13------------|
G|--------/12------------------------------------------------------15--------|
D|---------------------------------------------------------------------------|
A|---------------------------------------------------------------------------|
E|---------------------------------------------------------------------------|

e|-------------------------------------------------------------13------------|
B|-------------13--15------13--15------13--15------13--15--------------------|
G|--------/12------------------------------------------------------15--------|
D|---------------------------------------------------------------------------|
A|---------------------------------------------------------------------------|
E|---------------------------------------------------------------------------|

e|-------------------------------------------------------------18---17-------|
B|-------------20--18----------18----------18---------18---------------------|
G|--------/17--------------19----------19---------19-----------------------19|
D|---------------------------------------------------------------------------|
A|---------------------------------------------------------------------------|
E|---------------------------------------------------------------------------|

e|---------------------------------------------------------------------------|
B|---------------------------------------------------------------------------|
G|--------15/17-15-------------15----------15/17--15-----14----15--15--------|
D|-------------------------17----------17------------------------------------|
A|---------------------------------------------------------------------------|
E|---------------------------------------------------------------------------|            
Submit corrections

↑ Back to top | Tablatures and chords for acoustic guitar and electric guitar, ukulele, drums are parodies/interpretations of the original songs. You may use it for private study, scholarship, research or language learning purposes only