Home » M » Mitchell Kim »

Mitchell Kim - Rockland Wonderland Tabs

Artists:  A B C D E F G H I J K L M N O P Q R S T U V W X Y Z # 

Rockland Wonderland Tabs

(ver. 1) Click to play this song!
Mitchell Kim
 Rating:
4/5 (4 votes)
                KIM MITCHELL
			    ROCKLAND   WONDERLAND


intro.
---------1-1-1-1---------3-3-3-3---------1-1-1-1-s5-5-5-5-3-3-3-3-------
-3-3-3-3---------1-1-1-1---------3-3-3-3--------------------------------
					                         
         Bb            F               Gm                 Bb
Close companions with no deep meaning, here's an open suggestion:
         Dm7           C
are you all in for some dreaming?


----3----------------------3--------------------------------------------
3h6---6----------------3h6---6--------------6------5--3s----------------
------5--------5--5----------5--------------5------5--3sdown------------
---------------2--5-----------------------------------------------------
-----------1------------------------------3------3----------------------
(^^^ i find it easiest if i barre the whole wack of strings...)

Gm7       Bb              F         C  Gm7       Bb
Close companions in the concert bowl, we open our hearts
Dmn7            C
we let out the soul


solo (the beginning...)

E--16--16--16--16--16b17-----16---13---13\---13--13--11--13b14----13--11-

E13b14----13-11-13b14----13--11---------------11--11-11\-11-11-11-13b14---
A---------------------------------13---11-11-----------------------------

E 13--11--10-11--------------------------------------------------------

followed by some really tough hammering and pulling off
            
Submit corrections

↑ Back to top | Tablatures and chords for acoustic guitar and electric guitar, ukulele, drums are parodies/interpretations of the original songs. You may use it for private study, scholarship, research or language learning purposes only