Home » M » Mississippi John Hurt »

Mississippi John Hurt - See See Rider Tabs

Artists:  A B C D E F G H I J K L M N O P Q R S T U V W X Y Z # 

See See Rider Tabs

(ver. 1) Click to play this song!
Mississippi John Hurt
[Verse]
   D                     A-long                         D                              A-long
E|---------------2-----------|----------5-------5-----------|----------2-------2-----------|
B|---------------3-----------|----------2-------2-------3---|----------3-------3-----------|
G|-----------------------2---|------------------------------|--------------------------2---|
D|------0------------0-------|------2---------------2-------|------0---------------0-------|
A|-0---------0---------------|-0------------0---------------|-0------------0---------------|
E|---------------------------|------------------------------|------------------------------|
                     You see                    see     rider,                 you     see
                 Well, Im goin'                 away    baby,                  and I   won't
                     You see                    see     rider,                 the     moon
 
                        D                     G
E|----------5-------1-/-2-------|-----2---------------------------|------------------------------|
B|--------------------------3---|-------------0-----------0---3---|--------------0-------0---3---|
G|------------------------------|---------------------3-----------|-----0------------3-----------|
D|------2---------------0-------|---------0---------------0-------|---------0------------0-------|
A|-0------------0---------------|-0-------------------------------|------------------------------|
E|------------------------------|-----------------3---------------|-3------------3---------------|
       what you     have    done.             You made    me  love      you,     now     your man
        be  back    'till   fall.             Goin'      away baby,              won't   be  back
        is  shin-   in'     bright.                   See see rider,                 moon is shin-

               D                                  Dm                                G
E|----------------------2-------|-----2-----------1-------1---1---|-----0---------------------------|
B|---------0----------------3---|-------------3-------3-----------|-------------0-----------0---3---|
G|-----0-------2----------------|---------------------------------|---------------------3-----------|
D|---------0------------0-------|---------0---------------0-------|---------0---------------0-------|
A|-----------------0------------|-0---------------0---------------|-0-------------------------------|
E|-3----------------------------|---------------------------------|-----------------3---------------|
           has come.                                                            Made        me  love
           'till fall.                                                          Goin'      away baby,
           in' bright.                                                                   See see rider, 
           
                                              D
E|------------------------------|----------------------2-------|-----2-----------2-------2---2---|
B|--------------0-------0---3---|---------0---3------------3---|-------------3-------3-----------|
G|-----0------------3-----------|-----0------------------------|---------------------------------|
D|---------0------------0-------|---------0------------0-------|---------0---------------0-------|
A|------------------------------|-----------------0------------|-0---------------0---------------|
E|-3------------3---------------|-3----------------------------|---------------------------------|
       you,     now     your man          has come.
                won't   be  back          'till fall.
                     moon is shin-        in' bright.

               A-long                        D                               D
E|-----2---------------5-------5---|-----1-/-2-----------------|---------------------------|
B|---------------------2-------2---|--------------3---3--------|-0-------0---3-------------|
G|-------------2-------------------|---------------------------|-----0---------------------|
D|---------0---------------0-------|---------0------------0----|---------0------------0----|
A|-0---------------0---------------|-0------------0------------|-0---------------0---------|
E|---------------------------------|---------------------------|---------------------------|
               you made me     love      you,     now your       man     has come.
               Might   as      well      not      comin'         back    at  all.
               Gonna   find me a     good girl,   ev'ry-         thin's  allright.


E|-----2-------2-------------|
B|-----3-------3-------------|
G|---------------------------|
D|---------0------------0----|
A|-0---------------0---------|
E|---------------------------|            
Submit corrections

↑ Back to top | Tablatures and chords for acoustic guitar and electric guitar, ukulele, drums are parodies/interpretations of the original songs. You may use it for private study, scholarship, research or language learning purposes only