» » »

Mississippi John Hurt - Tabs

Artists:  A B C D E F G H I J K L M N O P Q R S T U V W X Y Z # 

Tabs

(ver. 1) Click to play this song!
Mississippi John Hurt
 Rating:
4.1/5 (31 vote)

  lessons Tabs too difficult? Try these video lessons and learn fast
 
                
  G                          C      G                          C    
e|--3---3---2---2-|--1---1-0-------|------3---2---2-|--1---1-0-------|
B|----0-------0---|----0-----------|----0---0---0---|----0-----------|
G|----------------|----------------|----------------|----------------|
D|------0-------0-|------0-------2-|------0-------0-|------0-------2-|
A|----------------|----------3-----|----------------|----------3-----|
E|--3-------3-----|--3-------------|--3-------3-----|--3-------------|

  F                C                F                C 
e|----------------|--0---0---------|----------------|--0---0---------|
B|--3-1----3-1----|----3---1-------|--3-1----3-1----|----3---1-------|
G|------2------2--|----------------|------2------2--|--------------2-|
D|----------------|------2-------2-|----------------|------2-------0-|
A|----------------|--3-------3-----|----------------|--3-------3-----|
E|--1-------------|----------------|--1-------------|----------------|

  G                C
e|----------------|----------------|----------------|----------------|
B|------------0---|-0h1-----1------|----------------|----------------|
G|--0-----0-2-----|----------------|----------------|----------------|
D|------0-------0-|-------2-------2|----------------|----------------|
A|----------------|---3-------3----|----------------|----------------|
E|--3-------3-----|----------------|----------------|----------------|

            
Submit corrections


         lessons Hard to play? Try these video lessons and learn fast  lessons
        
↑ Back to top | Tablatures and chords for acoustic guitar and electric guitar, ukulele, drums are parodies/interpretations of the original songs. You may use it for private study, scholarship, research or language learning purposes only