Home » M » Mississippi John Hurt »

Mississippi John Hurt - Corrina Corrina Tabs

Artists:  A B C D E F G H I J K L M N O P Q R S T U V W X Y Z # 

Corrina Corrina Tabs

(ver. 1) Click to play this song!
Mississippi John Hurt
----------------------------------------------------------------------------
                 Corrina, Corrina - Mississippi John Hurt
----------------------------------------------------------------------------



Tuning: Standard

    
E||----------------------|----------0------------|-----0--------0---------|
B||----------------------|--1--------------------|-----------1-------3----|
G||-------0h2-------0----|-----------------------|------------------------|
D||------------2---------|-------2----------2----|--------2----------2----|
A||----------------------|--3--------------------|--3---------------------|
E||----------------------|-------------3---------|--------------3---------|

    
-----------------------|-----0-----0--------------|-----------------------|
--1--------------------|-----------------3--1-----|--1-------1------------|
----------0------------|-----------------------2--|-----------------------|
-------2----------2----|--------2-----------2-----|-------3----------3----|
--3--------------------|--3-----------------------|-----------------------|
-------------3---------|--------------3-----------|--1----------1---------|

    
------------------------|----------------------|-----0-----0--------0----|
-----1--------1---------|----------------------|-----------------3-------|
-----------2-------2----|--0-------------------|-------------------------|
--------3----------3----|-------2---------2----|--------2-----------2----|
------------------------|--3-------------------|--3----------------------|
--1-----------1---------|------------3---------|--------------3----------|

   
-----------------------|-----0--------0---------|----------------------|
--3-------3------------|-----------3-------3----|--1---------1---------|
-----------------------|------------------------|----------------------|
-------0----------0----|--------0----------0----|-------2---------2----|
-----------------------|------------------------|--3-------------------|
--3----------3---------|--3-----------3---------|------------3---------|

     
----------------------|----------0------------|-----0--------0---------|
----------------------|--1--------------------|-----------1-------3----|
-------0h2-------0----|-----------------------|------------------------|
------------2---------|-------2----------2----|--------2----------2----|
--3-------------------|--3--------------------|--3---------------------|
----------------------|-------------3---------|--------------3---------|

 
-----------------------|-----0-----0--------------|-----------------------|
--1--------------------|-----------------3--1-----|--1-------1------------|
----------0------------|-----------------------2--|-----------------------|
-------2----------2----|--------2-----------2-----|-------3----------3----|
--3--------------------|--3-----------------------|-----------------------|
-------------3---------|--------------3-----------|--1----------1---------|

     
------------------------|----------------------|-----0-----0--------0----|
-----1--------1---------|----------------------|-----------------3-------|
-----------2-------2----|--0-------------------|-------------------------|
--------3----------3----|-------2---------2----|--------2-----------2----|
------------------------|--3-------------------|--3----------------------|
--1-----------1---------|------------3---------|--------------3----------|

    
-----------------------|-----0--------0---------|----------------------|
--3-------3------------|-----------3-------3----|--1---------1---------|
-----------------------|------------------------|----------------------|
-------0----------0----|--------0----------0----|-------2---------2----|
-----------------------|------------------------|--3-------------------|
--3----------3---------|--3-----------3---------|------------3---------|

     
--0----------------||
--1----------------||
--0----------------||
--2----------------||
--3----------------||
--3----------------||

| /  slide up
| \  slide down
| h  hammer-on
| p  pull-off
| ~  vibrato
| +  harmonic
| x  Mute note
===========================================================================
            
Submit corrections

↑ Back to top | Tablatures and chords for acoustic guitar and electric guitar, ukulele, drums are parodies/interpretations of the original songs. You may use it for private study, scholarship, research or language learning purposes only