Home » M » Misfits »

Misfits - Land Of The Dead Tabs

Artists:  A B C D E F G H I J K L M N O P Q R S T U V W X Y Z # 

Land Of The Dead Tabs

(ver. 1) Click to play this song!
Misfits
 Rating:
4.3/5 (20 votes)
                [Intro]
e|---------------------------------------------------------------------------|
B|-4/2-2--1------------------------------------------------------------------|
G|-----------1-1-1-1/3-------------------------------------------------------|
D|---------------------------------------------------------------------------|
A|---------------------------------------------------------------------------|
E|---------------------------------------------------------------------------|

e|---------------------------------------------------------------------------|
B|---------------------------------------------------------------------------|
G|---------------------------------------------------------------------------|
D|---------------------------------------------------------------------------|
A|-6/4-4--3------6-----------------------------------------------------------|
E|-4/2-2--1------4-----------------------------------------------------------|

[Verse]
e|---------------------------------------------------------------------------|
B|---------------------------------------------------------------------------|
G|-3-3-3-3-3-3-3-3-----------------6-6-6-6-6-6-6-6---------------------------|
D|-3-3-3-3-3-3-3-3-4-4-4-4-4-4-4-4-6-6-6-6-6-6-6-6-6-6-6-6-6-6-6-6-----------|
A|-1-1-1-1-1-1-1-1-4-4-4-4-4-4-4-4-4-4-4-4-4-4-4-4-6-6-6-6-6-6-6-6-----------|
E|-----------------2-2-2-2-2-2-2-2-----------------4-4-4-4-4-4-4-4-----------|

A fortress in the sky
What's left of life it holds
We live on borrowed time

Along a glowing moonlit pier
Their armies still advance
From the murky depths they rise

[Pre-Chorus]
e|---------------------------------------------------------------------------|
B|---------------------------------------------------------------------------|
G|---------------------------------------------------------------------------|
D|-4---4---4---4---4---4---4---4---3---3---3---3---3---3---3---3-------------|
A|-4---4---4---4---4---4---4---4---3---3---3---3---3---3---3---3-------------|
E|-2-2-2-2-2-2-2-2-2-2-2-2-2-2-2-2-1-1-1-1-1-1-1-1-1-1-1-1-1-1-1-1-----------|
   P.M.

e|---------------------------------------------------------------------------|
B|---------------------------------------------------------------------------|
G|---------------------------------------------------------------------------|
D|-4---4---4---4---4---4---4---4---6-----------------------------------------|
A|-4---4---4---4---4---4---4---4---6--let ring-------------------------------|
E|-2-2-2-2-2-2-2-2-2-2-2-2-2-2-2-2-4-----------------------------------------|
From their rotting bones
Their souls they scream
For the flesh they need

[Chorus]
e|---------------------------------------------------------------------------|
B|---------------------------------------------------------------------------|
G|-----------------6-6-6-6-6-6-6-6-------------------------------------------|
D|-8-8-8-8-8-8-8-8-6-6-6-6-6-6-6-6-6-6-6-6-6-6-6-6-8-8-8-8-8-8-666-----------|
A|-8-8-8-8-8-8-8-8-4-4-4-4-4-4-4-4-6-6-6-6-6-6-6-6-8-8-8-8-8-8-666-----------|
E|-6-6-6-6-6-6-6-6-----------------4-4-4-4-4-4-4-4-6-6-6-6-6-6-444-----------|

e|---------------------------------------------------------------------------|
B|---------------------------------------------------------------------------|
G|-----------------6-6-6-6-6-6-6-6-------------------------------------------|
D|-8-8-8-8-8-8-8-8-6-6-6-6-6-6-6-6-6-6-6-6-6-6-6-6-8-8-8-8-6/4-4--3----------|
A|-8-8-8-8-8-8-8-8-4-4-4-4-4-4-4-4-6-6-6-6-6-6-6-6-8-8-8-8-6/4-4--3----------|
E|-6-6-6-6-6-6-6-6-----------------4-4-4-4-4-4-4-4-6-6-6-6-4/2-2--1----------|
Tonight...Zombies walk
Upon the earth
Land of the Dead

[Verse]
e|---------------------------------------------------------------------------|
B|---------------------------------------------------------------------------|
G|-3-3-3-3-3-3-3-3-----------------6-6-6-6-6-6-6-6---------------------------|
D|-3-3-3-3-3-3-3-3-4-4-4-4-4-4-4-4-6-6-6-6-6-6-6-6-6-6-6-6-6-6-6-6-----------|
A|-1-1-1-1-1-1-1-1-4-4-4-4-4-4-4-4-4-4-4-4-4-4-4-4-6-6-6-6-6-6-6-6-----------|
E|-----------------2-2-2-2-2-2-2-2-----------------4-4-4-4-4-4-4-4-----------|

e|---------------------------------------------------------------------------|
B|---------------------------------2---------------------2-------------------|
G|-1/3-3-3-3-3-3-3-1/3-3-3-3-3-3-3---3-3-3-3-3-3-1/3-3-3---3-3-3-------------|
D|---------------------------------------------------------------------------|
A|---------------------------------------------------------------------------|
E|---------------------------------------------------------------------------|
Massive flames arise
They burn out of control
In the slums it's genocide

Evolved they find a way inside
Those who could escape
Had no chance to survive 

[Pre-Chorus]
e|---------------------------------------------------------------------------|
B|---------------------------------------------------------------------------|
G|---------------------------------------------------------------------------|
D|-4---4---4---4---4---4---4---4---3---3---3---3---3---3---3---3-------------|
A|-4---4---4---4---4---4---4---4---3---3---3---3---3---3---3---3-------------|
E|-2-2-2-2-2-2-2-2-2-2-2-2-2-2-2-2-1-1-1-1-1-1-1-1-1-1-1-1-1-1-1-1-----------|
   P.M.

e|---------------------------------------------------------------------------|
B|---------------------------------------------------------------------------|
G|---------------------------------------------------------------------------|
D|-4---4---4---4---4---4---4---4---6-----------------------------------------|
A|-4---4---4---4---4---4---4---4---6--let ring-------------------------------|
E|-2-2-2-2-2-2-2-2-2-2-2-2-2-2-2-2-4-----------------------------------------|

e|---------------------------------------------------------------------------|
B|---------------------------------------------------------------------------|
G|-3--3/5--5/6---8b10--------------------------------------------------------|
D|---------------------------------------------------------------------------|
A|---------------------------------------------------------------------------|
E|---------------------------------------------------------------------------|
From their rotting bones
Their souls they scream
For the flesh they need

[Chorus]
e|---------------------------------------------------------------------------|
B|---------------------------------------------------------------------------|
G|-----------------6-6-6-6-6-6-6-6-------------------------------------------|
D|-8-8-8-8-8-8-8-8-6-6-6-6-6-6-6-6-6-6-6-6-6-6-6-6-8-8-8-8-8-8-666-----------|
A|-8-8-8-8-8-8-8-8-4-4-4-4-4-4-4-4-6-6-6-6-6-6-6-6-8-8-8-8-8-8-666-----------|
E|-6-6-6-6-6-6-6-6-----------------4-4-4-4-4-4-4-4-6-6-6-6-6-6-444-----------|

e|---------------------------------------------------------------------------|
B|---------------------------------------------------------------------------|
G|-----------------6---------------------------------------------------------|
D|-8-8-8-8-8-8-8-8-6--6--8--6--4--3---8--------------------------------------|
A|-8-8-8-8-8-8-8-8-4--6--8--6--4--3---8--------------------------------------|
E|-6-6-6-6-6-6-6-6----4--6--4--2--1---6--------------------------------------|
Tonight...Zombies walk
Upon the earth
Land of the Dead            
Submit corrections

↑ Back to top | Tablatures and chords for acoustic guitar and electric guitar, ukulele, drums are parodies/interpretations of the original songs. You may use it for private study, scholarship, research or language learning purposes only