Home » M » Misfits »

Misfits - Dr. Phibes Tabs

Artists:  A B C D E F G H I J K L M N O P Q R S T U V W X Y Z # 

Dr. Phibes Tabs

(ver. 1) Click to play this song!
Misfits
 Rating:
4/5 (4 votes)
                By The Misfits

E|-------------------------------
B|-------------------------------
G|----4-----5-----4----5--7-5----
D|-2--4--2--5--2--4--2-5--7-5-7-9
A|-2--2--2--3--2--2--2-3--5-3-7-9
E|-0-----0-----0-----0--------5-7

E|-------------------------------
B|-------------------------------
G|----4-----5-----4----5--7-5----
D|-2--4--2--5--2--4--2-5--7-5-7-9
A|-2--2--2--3--2--2--2-3--5-3-7-9
E|-0-----0-----0-----0--------5-7

E|-------------------------------
B|-------------------------------
G|----4-----5-----4----5--7-5----
D|-2--4--2--5--2--4--2-5--7-5-7-9
A|-2--2--2--3--2--2--2-3--5-3-7-9
E|-0-----0-----0-----0--------5-7
            
Submit corrections

↑ Back to top | Tablatures and chords for acoustic guitar and electric guitar, ukulele, drums are parodies/interpretations of the original songs. You may use it for private study, scholarship, research or language learning purposes only