Home » M » Misfits »

Misfits - Devilock Bass

Artists:  A B C D E F G H I J K L M N O P Q R S T U V W X Y Z # 

Devilock Bass

(ver. 1) Click to play this song!
Misfits
Intro / Verse
G-----------------|
D-----------------|
A-----------------|
E-0-0-0-0-0-0-0-3-|

Chorus
G---------------------------------|
D---------------------------------|
A-----------------3-3-3-3---------|
E-0-0-0-0-0-0-0-0---------3-3-3-3-|

End
G-----------------------------------------|
D-----------------------------------------|
A-4-3-4-3-4-3-4-3-4-3-4-3-4-3-4-3-4~---3~-|
E-----------------------------------------|
            
Submit corrections

↑ Back to top | Tablatures and chords for acoustic guitar and electric guitar, ukulele, drums are parodies/interpretations of the original songs. You may use it for private study, scholarship, research or language learning purposes only