Home » M » Mirah »

Mirah - Special Death Chords

Artists:  A B C D E F G H I J K L M N O P Q R S T U V W X Y Z # 

Special Death Chords

(ver. 2) Click to play this song!
Mirah
[Intro]

     Dm
e|-----1--------1--------1------------------|
B|---------3--------3--------3--------------|
G|-------2--------2--------2----------------|
D|---0-----------------0--------------------|
A|------------0------------------0--3-------|
E|------------------------------------------|


     A
e|-----0--------0--------0------------------|
B|---------2--------2--------2--------------|
G|-------2--------2--------2----------------|
D|------------2------------------3--2-------|
A|---0-----------------0--------------------|
E|------------------------------------------|


[Verse]

  Dm                   A
A terrible mistake was made
                           Dm                                  A  
The weight would break the backs of ten strong horses tried to save
                  Dm
The castle in the fray
       A                          Dm
If you knew that I could take the pain
                 A
Inflicted at the battle with faithful arrows
Dm                        A
You might get back in the saddle
                             Dm
But it's a special death you saved
                      A
For me the brown eyed daughter
                 Dm
Once you made it hotter
                   A
The thankless holy praise
                  Dm
Is left alone why bother
                   A
To cast a stone in water


[Interlude]

            Dm
La la la la la
         A
La la la la
               Dm
La la la la la La
         A
La la la la
               Dm
La la la la la la
         A
La la la la la
            Dm
La la la la la



On the last Dm, the tab changes slightly and the song is in straight eighths instead of in swing.


[Outro]

     Dm
e|-----1-1----1-1----1-1---------|
B|-----3-3----3-3----3-3---------|
G|-------------------------------|
D|---0-------------0-------------|
A|----------0--------------0---3-|
E|-------------------------------|

     A
e|-----0-0----0-0----0-0---------|
B|-----2-2----2-2----2-2---------|
G|-------------------------------|
D|----------2--------------3---2-|
A|---0-------------0-------------|
E|-------------------------------|            
Submit corrections

↑ Back to top | Tablatures and chords for acoustic guitar and electric guitar, ukulele, drums are parodies/interpretations of the original songs. You may use it for private study, scholarship, research or language learning purposes only