Home » M » Mirah »

Mirah - Monument Tabs

Artists:  A B C D E F G H I J K L M N O P Q R S T U V W X Y Z # 

Monument Tabs

(ver. 1) Click to play this song!
Mirah
-------------------------------------------------------------------------------
-------------------------------------------------------------------------------

Tuning: Standard



Aren't you gonna...
       Am              C               G	    
e|-------------| |-------------| |-------------| |-------------|
B|-----2-------| |-----1-------| |-----3-------| |-----3-------|
G|---------2---| |---------0---| |---------0---| |---------0---|
D|-------1-----| |-------2-----| |-------0-----| |-------0-----|
A|---0---------| |---3---------| |---2---------| |-------------|
E|-------------| |-------------| |-------------| |---3---------|
       4x              2x              2x              4x

***This next part may not be entirely correct***

Hands up to the..
e|-----------3-----0----------|
B|-----6----------------------|
G|----------------------------|
D|---3-----5-----2-----0------|
A|-----------------------3----|
E|----------------------------|

*Alternatively you can play this instead whenever you encounter the previous part.
e|-----1-----3-----0----------|
B|----------------------------|
G|---------0------------------|
D|---3-----------2-----0------|
A|-----------------------3----|
E|----------------------------|

       Am	    
e|-------------|
B|-----2-------|
G|---------2---|
D|-------1-----|
A|---0---------|
E|-------------|
       x4

If you feel...
       Am              C               G	    
e|-------------| |-------------| |-------------| |-------------|
B|-----2-------| |-----1-------| |-----3-------| |-----3-------|
G|---------2---| |---------0---| |---------0---| |---------0---|
D|-------1-----| |-------2-----| |-------0-----| |-------0-----|
A|---0---------| |---3---------| |---2---------| |-------------|
E|-------------| |-------------| |-------------| |---3---------|
       4x              2x              2x              4x

Keeping you...
                                      E          G (barre 3rd Fret)
e|-----------3-----0----------| |-------------| |-------------|
B|-----6----------------------| |-----0-------| |-----3-------|
G|----------------------------| |---------1---| |---------4---|
D|---3-----5-----2-----0------| |-------2-----| |-------4-----|
A|-----------------------3----| |---2---------| |---5---------|
E|----------------------------| |-------------| |-------------|
                                      2x              4x

We've got it...
     C	                Am            F
e|--------------------------------------1-------1-------3-------3-------|
B|-----1--------1-------1-------1-----------1-------1-------3-------3---|
G|---------0--------0-------2-------0-----2-------2-------0-------0-----|
D|-------2--------0-------2-------0-------------------------------------|
A|---3--------2-------0-------------------------------------------------|
E|----------------------------3-------1-------1-------3-------3---------|
                                      2x

... gonnna hurt for awhile...
       F               G
e|-------------| |-------------|
B|-----1-------| |-----3-------|
G|---------2---| |---------4---|
D|-------3-----| |-------5-----|
A|-------------| |-------------|
E|---1---------| |---3---------|
       4x              4x

Let us stand...
     C	                Am            F
e|--------------------------------------1-------1-------3-------3-------|
B|-----1--------1-------1-------1-----------1-------1-------3-------3---|
G|---------0--------0-------2-------0-----2-------2-------0-------0-----|
D|-------2--------0-------2-------0-------------------------------------|
A|---3--------2-------0-------------------------------------------------|
E|----------------------------3-------1-------1-------3-------3---------|
                                      2x
If that should...
     C	                Am
e|--------------------------------------|
B|-----1--------1-------1-------1-------|
G|---------0--------0-------2-------0---|
D|-------2--------0-------2-------0-----|
A|---3--------2-------0-----------------|
E|----------------------------3---------|
                                      
throw my...
e|-----------3-----0----------|
B|-----6----------------------|
G|----------------------------|
D|---3-----5-----2-----0------|
A|-----------------------3----|
E|----------------------------|

       Am	    
e|-------------|
B|-----2-------|
G|---------2---|
D|-------1-----|
A|---0---------|
E|-------------|
       x4

So aren't you gonna...
       Am              C               G	    
e|-------------| |-------------| |-------------| |-------------|
B|-----2-------| |-----1-------| |-----3-------| |-----3-------|
G|---------2---| |---------0---| |---------0---| |---------0---|
D|-------1-----| |-------2-----| |-------0-----| |-------0-----|
A|---0---------| |---3---------| |---2---------| |-------------|
E|-------------| |-------------| |-------------| |---3---------|
       4x              2x              2x              4x

Hands up to the..
e|-----------3-----0----------|
B|-----6----------------------|
G|----------------------------|
D|---3-----5-----2-----0------|
A|-----------------------3----|
E|----------------------------|

       Am	    
e|-------------|
B|-----2-------|
G|---------2---|
D|-------1-----|
A|---0---------|
E|-------------|
       x4

If you feel...
       Am              C               G	    
e|-------------| |-------------| |-------------| |-------------|
B|-----2-------| |-----1-------| |-----3-------| |-----3-------|
G|---------2---| |---------0---| |---------0---| |---------0---|
D|-------1-----| |-------2-----| |-------0-----| |-------0-----|
A|---0---------| |---3---------| |---2---------| |-------------|
E|-------------| |-------------| |-------------| |---3---------|
       4x              2x              2x              4x

Keeping you...
                                      E          G (barre 3rd Fret)
e|-----------3-----0----------| |-------------| |-------------|
B|-----6----------------------| |-----0-------| |-----3-------|
G|----------------------------| |---------1---| |---------4---|
D|---3-----5-----2-----0------| |-------2-----| |-------4-----|
A|-----------------------3----| |---2---------| |---5---------|
E|----------------------------| |-------------| |-------------|
                                      2x              16x

It's a long...
     C	                Am            F
e|--------------------------------------1-------1-------3-------3-------|
B|-----1--------1-------1-------1-----------1-------1-------3-------3---|
G|---------0--------0-------2-------0-----2-------2-------0-------0-----|
D|-------2--------0-------2-------0-------------------------------------|
A|---3--------2-------0-------------------------------------------------|
E|----------------------------3-------1-------1-------3-------3---------|
                                      2x

You belong to...
       F               G
e|-------------| |-------------|
B|-----1-------| |-----3-------|
G|---------2---| |---------4---|
D|-------3-----| |-------5-----|
A|-------------| |-------------|
E|---1---------| |---3---------|
       4x              4x

So teach yourself...
     C	                Am            F
e|--------------------------------------1-------1-------3-------3-------|
B|-----1--------1-------1-------1-----------1-------1-------3-------3---|
G|---------0--------0-------2-------0-----2-------2-------0-------0-----|
D|-------2--------0-------2-------0-------------------------------------|
A|---3--------2-------0-------------------------------------------------|
E|----------------------------3-------1-------1-------3-------3---------|
                                      1x

the monument...
       F               E             G
e|-------------| |-------------|-------------|
B|-----1-------| |-----0-------|-----3-------|
G|---------2---| |---------1---|---------4---|
D|-------3-----| |-------2-----|-------5-----|
A|-------------| |-------------|-------------|
E|---1---------| |---0---------|---3---------|
       4x              2x            2x

For rising up...
     C	                Am
e|--------------------------------------|
B|-----1--------1-------1-------1-------|
G|---------0--------0-------2-------0---|
D|-------2--------0-------2-------0-----|
A|---3--------2-------0-----------------|
E|----------------------------3---------|

beaten down...
e|-----------3-----0----------|
B|-----6----------------------|
G|----------------------------|
D|---3-----5-----2-----0------|
A|-----------------------3----|
E|----------------------------|



Aren't you gonna...
       Am              C               G	    
e|-------------| |-------------| |-------------| |-------------|
B|-----2-------| |-----1-------| |-----3-------| |-----3-------|
G|---------2---| |---------0---| |---------0---| |---------0---|
D|-------1-----| |-------2-----| |-------0-----| |-------0-----|
A|---0---------| |---3---------| |---2---------| |-------------|
E|-------------| |-------------| |-------------| |---3---------|
       4x              2x              2x              4x

Hands up to the..
e|-----------3-----0----------|
B|-----6----------------------|
G|----------------------------|
D|---3-----5-----2-----0------|
A|-----------------------3----|
E|----------------------------|

       Am	    
e|-------------|
B|-----2-------|
G|---------2---|
D|-------1-----|
A|---0---------|
E|-------------|
       x4

If you feel...
       Am              C               G	    
e|-------------| |-------------| |-------------| |-------------|
B|-----2-------| |-----1-------| |-----3-------| |-----3-------|
G|---------2---| |---------0---| |---------0---| |---------0---|
D|-------1-----| |-------2-----| |-------0-----| |-------0-----|
A|---0---------| |---3---------| |---2---------| |-------------|
E|-------------| |-------------| |-------------| |---3---------|
       4x              2x              2x              4x

Keeping you...
                                   
e|-----------3-----0---------------|
B|-----6---------------------------|
G|---------------------------------|
D|---3-----5-----2-----0-----------|
A|-----------------------3--0------|
E|---------------------------------|

END
            
Submit corrections

↑ Back to top | Tablatures and chords for acoustic guitar and electric guitar, ukulele, drums are parodies/interpretations of the original songs. You may use it for private study, scholarship, research or language learning purposes only